Ukulele Tabs for Wii

(/) Slide Up  (\) Slide Down  (h) Hammer On  (p) Pull Off  (b) Bend (r) Release (v) Vibrato (x) Muted

Tabs for Song : 

Song lyrics here
A|-----------4--------2--2--2-----------------4--------7-----6--5-----------4--------4--------4-----------
E|--2-----5--5--5--2--4--4--4--------2--2--5--5--5--2--4--------------4--------2-----------4-----3--2--0--
C|--2-----6-----6--2--2--2--2-----1--2--2--6-----6--2--2-----------------------------------------7--6--1--
G|--------------------------------------------------------------------------------------------------------

A|--------------------------------------------4-----------------------7--7--7--------------4-------
E|-----2--2--2-----2--2--2-----2--1-----2--5--5--5--2-----4--4--4-----4--4--4--------2--5--5--5--2-
C|-----0--0--0-----0--0--0--------------2--6-----6--2-----2--2--2-----------------1--2--6-----6--2-
G|-------------------------------------------------------------------------------------------------

A|--7-----6--5-----2-----------2--------0--------2-----------2--2--2-----------------2--4-----0--1--2--
E|--9-----------------3-----------3--------2--------2--------0--0--0-----------1--2--------------------
C|--8--------------------2--1--------1--------0--------2-----1--1--1-----1--2--------------------------
G|-----------------------------------------------------------------------------------------------------

A|--1--2-----0--1--2--9--4--2--1--2-----2--3--4--3--4-----4--3--4--11-6--4--6--2--------------------------
E|-----------------------------------------------------------------------------------------2-----4--4--4--
C|-----------------------------------------------------------------------------------1--2-----2--4--4--4--
G|--------------------------------------------------------------------------------------------------------



tabs and chords, guitar tabs, music contests, music covers, songsterr, reverbnation, renditions, tabulature, bollywood chords, ultimate guitar, yousician, guitar lessons, torrins, fender, gibson, acoustic guitar, electric guitar, youtube covers, gootar, guitar tuner, A-Z tabs, 911 tabs