Guitar Tabs for Why'd You Have To...

(/) Slide Up  (\) Slide Down  (h) Hammer On  (p) Pull Off  (b) Bend (r) Release (v) Vibrato (x) Muted

Tabs for Song : 

Song lyrics here
E|-------------------------------------------------------------------------------------
B|------------------------------------------------------------------------------------
G|------------------------------------------------------------------9b----------------
D|------------------------------------------\9--9--9--9--10-12-10-----7b--5-----------
A|--\7--7--7--7--\7-7-7-7--\7-7-7-7-6-6-6------------------------------------7--5--7--
E|------------------------------------------------------------------------------------

Song lyrics here
E|--\12--12--12--12---\12-12-12---\12-12-12-12--11-11-11---\12--12--12--12----------------------------------
B|--------------------------------------------------------------------------13-\15-13-----------------------
G|--\12--12--12--12---\12-12-12---\12-12-12-12--11-11-11---\12--12--12--12-------------14\-16-16-16-14-----
D|--------------------------------------------------------------------------------------------------14-----
A|---------------------------------------------------------------------------------------------------------
E|---------------------------------------------------------------------------------------------------------

Paste any tab in acousterr's tab maker and we'll play it !!!
Now supports capo and sound effects for vibrato/pull-off/hammer/bends/mutes etc !!! Checkout help section
tabs and chords, guitar tabs, music transcription, music technology, deep learning, music information retrieval, transcribe into tabs & chords, chordify, music renditions, songsterr, reverbnation, tabulature, bollywood chords, ultimate guitar, yousician, guitar lessons, acoustic guitar, electric guitar, guitar tuner, 911 tabs