Guitar Tabs for Why Don't We Do It In The Road

(/) Slide Up  (\) Slide Down  (h) Hammer On  (p) Pull Off  (b) Bend (r) Release (v) Vibrato (x) Muted

Tabs for Song : 
BPM : 200

Song lyrics here 
E|-----10----10----10----10-------10----10----10----10-------10----10----10----10-------10----10----10----10-
B|-----------------------------------------------------------------------------------------------------------
G|--11----11----11----11-------11----11----11----11-------11----11----11----11-------11----11----11----11----
D|-----------------------------------------------------------------------------------------------------------
A|-----------------------------------------------------------------------------------------------------------
E|-----------------------------------------------------------------------------------------------------------

E|-----------------------------------------------------------10----10----10----10-------10----10----10----10-
B|-----------------------------------------------------------------------------------------------------------
G|--9--11-9--11-9--11-9--11----12-14-12-14-12-14-12-14----11----11----11----11-------11----11----11----11----
D|-----------------------------------------------------------------------------------------------------------
A|-----------------------------------------------------------------------------------------------------------
E|-----------------------------------------------------------------------------------------------------------

E|-----5-----5-----5--------------3-----3-----3--5--3--2-----2-----2-----2-----2--------2-----2-----2-----3--2-----
B|--------------------8--7--5-----------------------------------------------------------------------------------3--
G|--6-----6-----6--------------4-----4-----4--------------2-----2-----2-----2--------2-----2-----2-----2-----------
D|-----------------------------------------------------------------------------------------------------------------
A|-----------------------------------------------------------------------------------------------------------------
E|-----------------------------------------------------------------------------------------------------------------

E|-----2-----2-----2--------0-----2-----2-----2-----0-----2-----2-----2--------0-----2-----2-----2-----3--2--
B|-----------------------3-----------------------3--------------------------3--------------------------------
G|--2-----2-----2-----2--------2-----2-----2-----------2-----2-----2-----2--------2-----2-----2-----2--------
D|-----------------------------------------------------------------------------------------------------------
A|-----------------------------------------------------------------------------------------------------------
E|-----------------------------------------------------------------------------------------------------------

E|-----3-----3-----3--5--3--------3-----3-----3--7--5--------10----10----10----10----10----10----10----10-
B|--------------------------------------------------------------------------------------------------------
G|--4-----4-----4--------------4-----4-----4--------------11----11----11----11----11----11----11----11----
D|--------------------------------------------------------------------------------------------------------
A|--------------------------------------------------------------------------------------------------------
E|--------------------------------------------------------------------------------------------------------

E|-----5-----5-----5-----3--------3-----3-----3--5--3-----2-----2-----2--0-----
B|--------------------------------------------------------------------------3--
G|--6-----6-----6-----6--------4-----4-----4-----------2-----2-----2-----------
D|-----------------------------------------------------------------------------
A|-----------------------------------------------------------------------------
E|-----------------------------------------------------------------------------

E|-----------------------------------------------------------------------------------------------
B|-----------------------------------------------------------------------------------------------
G|--11-11-11-11-11-11-11-11-11-11-11-11-11-11-11-11----14-14-14-14-14-14-14-14-14-14-14-14-14-14-
D|-----------------------------------------------------------------------------------------------
A|-----------------------------------------------------------------------------------------------
E|-----------------------------------------------------------------------------------------------

E|--------------------------------------------------------------------------------------------------
B|--------------------------------------------------------------------------------------------------
G|--17-17-17-17-17-17-17-17-19-17-19-19-19-19-19-19----11-11-11-11-11-11-11-9-----9-----9-----9-----
D|-----------------------------------------------------------------------------12----12----12----12-
A|--------------------------------------------------------------------------------------------------
E|--------------------------------------------------------------------------------------------------

E|-----5-----5-----5-----5--------3-----3-----3-----3-----2--0-----m
B|--------------------------------------------------------------3--
G|--6-----6-----6-----6--------4-----4-----4-----4-----------------
D|-----------------------------------------------------------------
A|-----------------------------------------------------------------
E|-----------------------------------------------------------------

Song lyrics here 
E|--
B|--
G|--
D|--
A|--
E|--

Use manual mode to free up cursor. Paste any tab in acousterr tab maker and we'll play it !!!
tabs and chords, guitar tabs, music transcription, music technology, deep learning, music information retrieval, transcribe into tabs & chords, chordify, music renditions, songsterr, reverbnation, tabulature, bollywood chords, ultimate guitar, yousician, guitar lessons, acoustic guitar, electric guitar, guitar tuner, 911 tabs