Why Aren't You Dead - Bon Jovi - Guitar Tabs

Guitar
    
                                                                                                                                                                                                                                                                                                                                                                                                                                                                                                                                                                                                                                                                                                                                                                                                                                                                                                                                                                                                                                                                                                                                                                                              
E|---0/---------5----------|-----------------------|
B|---0/------5-----8-------|-----------------------|
G|--------7----------------|2-----2----------------|
D|-------------------------|0-----0----------------|
A|-------------------------|0-----0--------0-------|
E|-------------------------|---------3--0-----3----|

    
                                                                                                                                                                                                                                                                                                                                                                                                                                                                                                                                                                                                                                                                                                                                                                                                                                                                                                                                                                                                                                                                                                                                                                                              
E|---0/---------5----------|-----------------------|
B|---0/------5-----8-------|-----------------------|
G|--------7----------------|-----------------------|
D|-------------------------|---7-----6-----5-----4-|
A|-------------------------|-----------------------|
E|-------------------------|5-----4-----3-----2----|

    
                                                                                                                                                                                                                                                                                                                                                                                                                                                                                                                                                                                                                                                                                                                                                                                                                                                                                                                                                                                                                                                                                                                                                                                              
E|---0/---------5----------|-----------------------|
B|---0/------5-----8-------|-----------------------|
G|--------7----------------|2-----2----------------|
D|-------------------------|0-----0----------------|
A|-------------------------|0-----0--------0-------|
E|-------------------------|---------3--0-----3----|

    
                                                                                                                                                                                                                                                                                                                                                                                                                                                                                                                                                                                                                                                                                                                                                                                                                                                                                                                                                                                                                                                                                                                                                                                              
E|---0/---------5----------|-----------------------|
B|---0/------5-----8-------|-----------------------|
G|--------7----------------|-----------------------|
D|-------------------------|---7-----6-----5-----4-|
A|-------------------------|-----------------------|
E|-------------------------|5-----4-----3-----2----|

    
                                                                                                                                                                                                                                                                                                                                                                                                                                                                                                                                                                                                                                                                                                                                                                                                                                                                                                                                                                                                                                                                                                                                                                                              
E|-------------------------|-----------------------|
B|--9-----9--7--7--9-------|-----------------------|
G|--9-----9--7--7--9-------|2-----2--------2--0----|
D|--9-----9--7--7--9-------|2-----2--------2--0----|
A|--7----------------------|0-----0--------0-------|
E|-------------------------|---------3--0----------|

    
                                                                                                                                                                                                                                                                                                                                                                                                                                                                                                                                                                                                                                                                                                                                                                                                                                                                                                                                                                                                                                                                                                                                                                                              
E|-------------------------|-----------------------|
B|--9-----9--7--7--9-------|-----------------------|
G|--9-----9--7--7--9-------|2-----2--------2--0----|
D|--9-----9--7--7--9-------|2-----2--------2--0----|
A|--7----------------------|0-----0--------0-------|
E|-------------------------|---------3--0----------|

    
                                                                                                                                                                                                                                                                                                                                                                                                                                                                                                                                                                                                                                                                                                                                                                                                                                                                                                                                                                                                                                                                                                                                                                                              
E|-------------------------|-----------------------|
B|--9-----9--7--7--9-------|-----------------------|
G|--9-----9--7--7--9-------|2-----2--------2--0----|
D|--9-----9--7--7--9-------|2-----2--------2--0----|
A|--7----------------------|0-----0--------0-------|
E|-------------------------|---------3--0----------|

    
                                                                                                                                                                                                                                                                                                                                                                                                                                                                                                                                                                                                                                                                                                                                                                                                                                                                                                                                                                                                                                                                                                                                                                                              
E|-------------------------|-----------------------|
B|--9-----9--7--7--9-------|-----------------------|
G|--9-----9--7--7--9-------|2-----2--------2--0----|
D|--9-----9--7--7--9-------|2-----2--------2--0----|
A|--7----------------------|0-----0--------0-------|
E|-------------------------|---------3--0----------|

    
                                                                                                                                                                                                                                                                                                                                                                                                                                                                                                                                                                                                                                                                                                                                                                                                                                                                                                                                                                                                                                                                                                                                                                                              
E|-------------------------|-----------------------|
B|--9-----9--7--7--9-------|-----------------------|
G|--9-----9--7--7--9-------|2-----2--------2--0----|
D|--9-----9--7--7--9-------|2-----2--------2--0----|
A|--7----------------------|0-----0--------0-------|
E|-------------------------|---------3--0----------|

    
                                                                                                                                                                                                                                                                                                                                                                                                                                                                                                                                                                                                                                                                                                                                                                                                                                                                                                                                                                                                                                                                                                                                                                                              
E|-------------------------|-----------------------|
B|--9-----9--7--7--9-------|-----------------------|
G|--9-----9--7--7--9-------|2-----2--------2--0----|
D|--9-----9--7--7--9-------|2-----2--------2--0----|
A|--7----------------------|0-----0--------0-------|
E|-------------------------|---------3--0----------|

    
                                                                                                                                                                                                                                                                                                                                                                                                                                                                                                                                                                                                                                                                                                                                                                                                                                                                                                                                                                                                                                                                                                                                                                                              
E|-------------------------|-----------------------|
B|--9-----9--7--7--9-------|-----------------------|
G|--9-----9--7--7--9-------|2-----2--------2--0----|
D|--9-----9--7--7--9-------|2-----2--------2--0----|
A|--7----------------------|0-----0--------0-------|
E|-------------------------|---------3--0----------|

    
                                                                                                                                                                                                                                                                                                                                                                                                                                                                                                                                                                                                                                                                                                                                                                                                                                                                                                                                                                                                                                                                                                                                                                                              
E|-------------------------|-----------------------|
B|--9-----9--7--7--9-------|-----------------------|
G|--9-----9--7--7--9-------|2-----2--------2--0----|
D|--9-----9--7--7--9-------|2-----2--------2--0----|
A|--7----------------------|0-----0--------0-------|
E|-------------------------|---------3--0----------|

    
                                                                                                                                                                                                                                                                                                                                                                                                                                                                                                                                                                                                                                                                                                                                                                                                                                                                                                                                                                                                                                                                                                                                                                                              
E|-------------------------|-----------------------|
B|--9-----9--7--7--9-------|-----------------------|
G|--9-----9--7--7--9-------|2-----2--------2--0----|
D|--9-----9--7--7--9-------|2-----2--------2--0----|
A|--7----------------------|0-----0--------0-------|
E|-------------------------|---------3--0----------|

    
                                                                                                                                                                                                                                                                                                                                                                                                                                                                                                                                                                                                                                                                                                                                                                                                                                                                                                                                                                                                                                                                                                                                                                                              
E|-------------------------|-----------------------|
B|-------------------------|-----------------------|
G|-------------------------|-----------------------|
D|--4--4--6--4--4--4--6--4-|2--2--4--2--2--2--4--2-|
A|--2--2--2--2--2--2--2--2-|0--0--0--0--0--0--0--0-|
E|-------------------------|-----------------------|

    
                                                                                                                                                                                                                                                                                                                                                                                                                                                                                                                                                                                                                                                                                                                                                                                                                                                                                                                                                                                                                                                                                                                                                                                              
E|-------------------------|-----------------------|
B|-------------------------|-----------------------|
G|-------------------------|-----------------------|
D|--4--4--6--4--4--4--6--4-|5--5--5--5--5--5--5--5-|
A|--2--2--2--2--2--2--2--2-|7--7--7--7--7--7--7--7-|
E|-------------------------|-----------------------|

    
                                                                                                                                                                                                                                                                                                                                                                                                                                                                                                                                                                                                                                                                                                                                                                                                                                                                                                                                                                                                                                                                                                                                                                                              
E|-------------------------|-----------------------|
B|--9-----9--7--7--9-------|-----------------------|
G|--9-----9--7--7--9-------|2-----2--------2--0----|
D|--9-----9--7--7--9-------|2-----2--------2--0----|
A|--7----------------------|0-----0--------0-------|
E|-------------------------|---------3--0----------|

    
                                                                                                                                                                                                                                                                                                                                                                                                                                                                                                                                                                                                                                                                                                                                                                                                                                                                                                                                                                                                                                                                                                                                                                                              
E|-------------------------|-----------------------|
B|--9-----9--7--7--9-------|-----------------------|
G|--9-----9--7--7--9-------|-----------------------|
D|--9-----9--7--7--9-------|---7-----6-----5-----4-|
A|--7----------------------|-----------------------|
E|-------------------------|5-----4-----3-----2----|

    
                                                                                                                                                                                                                                                                                                                                                                                                                                                                                                                                                                                                                                                                                                                                                                                                                                                                                                                                                                                                                                                                                                                                                                                              
E|-------------------------|-----------------------|
B|--9-----9--7--7--9-------|-----------------------|
G|--9-----9--7--7--9-------|-----------------------|
D|--9-----9--7--7--9-------|4--4--6--4--4--4--6--4-|
A|--7----------------------|2--2--2--2--2--2--2--2-|
E|-------------------------|-----------------------|

    
                                                                                                                                                                                                                                                                                                                                                                                                                                                                                                                                                                                                 
E|-------------------------|
B|-------------------------|
G|--2----------------------|
D|--2----------------------|
A|--0----------------------|
E|-------------------------|

    
                                                                                                                                                                                                                                                                                                                                                                                                                                                                                                                                                                                                                                                                                                                                                                                                                                                                                                                                                                                                                                                                                                                                                                                              
E|---0/---------5----------|-----------------------|
B|---0/------5-----8-------|-----------------------|
G|--------7----------------|2-----2----------------|
D|-------------------------|0-----0----------------|
A|-------------------------|0-----0--------0-------|
E|-------------------------|---------3--0-----3----|

    
                                                                                                                                                                                                                                                                                                                                                                                                                                                                                                                                                                                                                                                                                                                                                                                                                                                                                                                                                                                                                                                                                                                                                                                              
E|---0/---------5----------|-----------------------|
B|---0/------5-----8-------|-----------------------|
G|--------7----------------|-----------------------|
D|-------------------------|---7-----6-----5-----4-|
A|-------------------------|-----------------------|
E|-------------------------|5-----4-----3-----2----|

    
                                                                                                                                                                                                                                                                                                                                                                                                                                                                                                                                                                                                                                                                                                                                                                                                                                                                                                                                                                                                                                                                                                                                                                                              
E|-------------------------|-----------------------|
B|--9-----9--7--7--9-------|-----------------------|
G|--9-----9--7--7--9-------|2-----2--------2--0----|
D|--9-----9--7--7--9-------|2-----2--------2--0----|
A|--7----------------------|0-----0--------0-------|
E|-------------------------|---------3--0----------|

    
                                                                                                                                                                                                                                                                                                                                                                                                                                                                                                                                                                                                                                                                                                                                                                                                                                                                                                                                                                                                                                                                                                                                                                                              
E|-------------------------|-----------------------|
B|--9-----9--7--7--9-------|-----------------------|
G|--9-----9--7--7--9-------|2-----2--------2--0----|
D|--9-----9--7--7--9-------|2-----2--------2--0----|
A|--7----------------------|0-----0--------0-------|
E|-------------------------|---------3--0----------|

    
                                                                                                                                                                                                                                                                                                                                                                                                                                                                                                                                                                                                                                                                                                                                                                                                                                                                                                                                                                                                                                                                                                                                                                                              
E|-------------------------|-----------------------|
B|--9-----9--7--7--9-------|-----------------------|
G|--9-----9--7--7--9-------|2-----2--------2--0----|
D|--9-----9--7--7--9-------|2-----2--------2--0----|
A|--7----------------------|0-----0--------0-------|
E|-------------------------|---------3--0----------|

    
                                                                                                                                                                                                                                                                                                                                                                                                                                                                                                                                                                                                                                                                                                                                                                                                                                                                                                                                                                                                                                                                                                                                                                                              
E|-------------------------|-----------------------|
B|--9-----9--7--7--9-------|-----------------------|
G|--9-----9--7--7--9-------|2-----2--------2--0----|
D|--9-----9--7--7--9-------|2-----2--------2--0----|
A|--7----------------------|0-----0--------0-------|
E|-------------------------|---------3--0----------|

    
                                                                                                                                                                                                                                                                                                                                                                                                                                                                                                                                                                                                                                                                                                                                                                                                                                                                                                                                                                                                                                                                                                                                                                                              
E|-------------------------|-----------------------|
B|--9-----9--7--7--9-------|-----------------------|
G|--9-----9--7--7--9-------|2-----2--------2--0----|
D|--9-----9--7--7--9-------|2-----2--------2--0----|
A|--7----------------------|0-----0--------0-------|
E|-------------------------|---------3--0----------|

    
                                                                                                                                                                                                                                                                                                                                                                                                                                                                                                                                                                                                                                                                                                                                                                                                                                                                                                                                                                                                                                                                                                                                                                                              
E|-------------------------|-----------------------|
B|-------------------------|-----------------------|
G|-------------------------|-----------------------|
D|--4--4--6--4--4--4--6--4-|2--2--4--2--2--2--4--2-|
A|--2--2--2--2--2--2--2--2-|0--0--0--0--0--0--0--0-|
E|-------------------------|-----------------------|

    
                                                                                                                                                                                                                                                                                                                                                                                                                                                                                                                                                                                                                                                                                                                                                                                                                                                                                                                                                                                                                                                                                                                                                                                              
E|-------------------------|-----------------------|
B|-------------------------|-----------------------|
G|-------------------------|-----------------------|
D|--4--4--6--4--4--4--6--4-|5--5--5--5--5--5--5--5-|
A|--2--2--2--2--2--2--2--2-|7--7--7--7--7--7--7--7-|
E|-------------------------|-----------------------|

    
                                                                                                                                                                                                                                                                                                                                                                                                                                                                                                                                                                                                                                                                                                                                                                                                                                                                                                                                                                                                                                                                                                                                                                                              
E|-------------------------|-----------------------|
B|--9-----9--7--7--9-------|-----------------------|
G|--9-----9--7--7--9-------|2-----2--------2--0----|
D|--9-----9--7--7--9-------|2-----2--------2--0----|
A|--7----------------------|0-----0--------0-------|
E|-------------------------|---------3--0----------|

    
                                                                                                                                                                                                                                                                                                                                                                                                                                                                                                                                                                                                                                                                                                                                                                                                                                                                                                                                                                                                                                                                                                                                                                                              
E|-------------------------|-----------------------|
B|--9-----9--7--7--9-------|-----------------------|
G|--9-----9--7--7--9-------|-----------------------|
D|--9-----9--7--7--9-------|---7-----6-----5-----4-|
A|--7----------------------|-----------------------|
E|-------------------------|5-----4-----3-----2----|

About 100,000,000 Bon Jovi Fans Can't Be Wrong : 100,000,000 Bon Jovi Fans Can't Be Wrong is a collection of demos and B-sides . It was released to celebrate the band's 20th anniversary and the milestone of The box set consists of 4 CDs, and also includes a DVD of the band talking about the tracks . The Japanese version of the box set includes a fifth CD . The boxset charted at #53 on the Billboard 200 . "The Radio Saved My Life Tonight" was released as a promo CD single for the box set . The song was since played extensively on the bands following Have a Nice Day Tour .

tabs and chords, guitar tabs, music transcription, music technology, deep learning, music information retrieval, transcribe into tabs & chords, chordify, music renditions, songsterr, reverbnation, tabulature, bollywood chords, ultimate guitar, yousician, guitar lessons, acoustic guitar, electric guitar, guitar tuner, 911 tabs