Who's Gonna Save Us - Living End - Guitar Tabs

Main Guitar
    Who's Gonna Save Us? (x2) 
                                                                                                                                                                                                                                                                                                                                                                                                                                                                                                                                                                                                 
E|-------------------------|
B|--8--8--8--8--8--8--8--8-|
G|--7--5--4--0--------5----|
D|--------------7--5-----5-|
A|-------------------------|
E|-------------------------|

    
                                                                                                                                                                                                                                                                                                                                                                                                                                                                                                                                                                                                                                                                                                                                                                                                                                                                                                                                                                                                                                                                                                                                                                                              
E|-------------------------|-----------------------|
B|--8--8--8--8--8--3--3----|-----------------------|
G|--7--5--4--0-----2--2--0-|------------------7----|
D|--------------7--0--0--0-|------5--0--7--7--7--0-|
A|-------------------------|5--5--5--0--5--5--5--0-|
E|-------------------------|3--3--3----------------|

    I just don't understand I just don't understand 
    G5                                                                                                                                                                                                                        D5                                                                                                                                                                                                                                                                                                                                                                     G5                                                                                                                                                                                                                        D5                                                                                                                                                                                                                                                                                                                                                                     
E|-------------------------|--------------------------|
B|-------------------------|--------------------------|
G|--------------------7----|---------------------4----|
D|--------5--0--7--7--7--0-|------2--0--0--5--5--5--0-|
A|--5--5--5--0--5--5--5--0-|2--2--2--0--0--3--3--3--0-|
E|--3--3--3----------------|0--0--0-------------------|

    ce now___ ce now___ 
    G5                                                                                                                                                                                                                                                                                                                                                                                                                                                                                                                                                                                             G5                                                                                                                                                                                                                                                                                                                                                                                                                                                                                                                                                                                             
E|----------------------------|---------------------0----|
B|----------------------------|---------------------1----|
G|----------------------------|---------------------2----|
D|--------5--------------5----|------2--0--0--2--2--2----|
A|--5--5--5--5--5--5--5--5--0-|2--2--2--0--0--0--0--0----|
E|--3--3--3--3--3--3--3--3--0-|0--0--0-------------------|

    but you know what they say but you know what they say 
    E5                                                                                                                                                                                                                        B5                                                                                                                                                                                                                                                                                                                                                                     E5                                                                                                                                                                                                                        B5                                                                                                                                                                                                                                                                                                                                                                     
E|-------------------------|-----------------------------|
B|-------------------------|-----------------------------|
G|--------------------4----|------4--------------4-------|
D|--------2--0--4--4--4--5-|5--5--5--5--5--5--5--5--5--5-|
A|--2--2--2--0--2--2--2--0-|3--3--3--3--3--3--3--3--3--3-|
E|--0--0--0----------------|-----------------------------|

    
    C5                                                                                                            G/C                                                                                                                                                                                                                                                                                                                                                                                                                                                                                 C5                                                                                                            G/C                                                                                                                                                                                                                                                                                                                                                                                                                                                                                 
E|----------------------------|-----------------------|
B|----------------------------|-----------------------|
G|--------4--------------4----|------------------7----|
D|--5--5--5--5--5--5--5--5--0-|------5--0--7--7--7--0-|
A|--3--3--3--3--3--3--3--3--0-|5--5--5--0--5--5--5--0-|
E|----------------------------|3--3--3----------------|

    Our work is all cut out Our work is all cut out 
    G5                                                                                                                                                                                                                        D5                                                                                                                                                                                                                                                                                                                                                                     G5                                                                                                                                                                                                                        D5                                                                                                                                                                                                                                                                                                                                                                     
E|-------------------------|--------------------------|
B|-------------------------|--------------------------|
G|--------------------7----|---------------------4----|
D|--------5--0--7--7--7--0-|------2--0--0--5--5--5--0-|
A|--5--5--5--0--5--5--5--0-|2--2--2--0--0--3--3--3--0-|
E|--3--3--3----------------|0--0--0-------------------|

    rights?________ rights?________ 
    G5                                                                                                                                                                                                                                                                                                                                                                                                                                                                                                                                                                                             G5                                                                                                                                                                                                                                                                                                                                                                                                                                                                                                                                                                                             
E|----------------------------|---------------------0----|
B|----------------------------|---------------------1----|
G|----------------------------|---------------------2----|
D|--------5--------------5----|------2--0--0--2--2--2----|
A|--5--5--5--5--5--5--5--5--0-|2--2--2--0--0--0--0--0----|
E|--3--3--3--3--3--3--3--3--0-|0--0--0-------------------|

    But you know what they But you know what they 
    E5                                                                                                                                                                                                                        B5                                                                                                                                                                                                                                                                                                                                                                     E5                                                                                                                                                                                                                        B5                                                                                                                                                                                                                                                                                                                                                                     
E|-------------------------|-----------------------|
B|-------------------------|-----------------------|
G|--------------------4----|4-----------4----------|
D|--------2--0--4--4--4--5-|------5-----------5----|
A|--2--2--2--0--2--2--2--0-|3--3--3--3--3--3--3--3-|
E|--0--0--0----------------|-----------------------|

    what they what they 
                                                                                                                                                                                                                                                                                                                                                                                                                                                                                                                                                                                                                                                                                                                                                                                                                                                                                                                                                                                                                                                                                                                                                                                              
E|-------------------------|-----------------------|
B|-------------------------|-----------------------|
G|--------4----------------|4-----------4----------|
D|--------------5----------|------5----------------|
A|--3--3--3--3--3--3--3--3-|3--3--3--3--3--3--3--3-|
E|-------------------------|-----------------------|

    So So 
                                                                                                                                                                                                                                                                                                    D5                                                                                                                                                                                                                                                                                                                                                                                                                                                                                                                                                                                             D5                                                                                                                                                                                                                                                                                             
E|-------------------------|3-----3--0--2-----2--3-|
B|-----------------3--3----|3-----3--3--3-----3--3-|
G|--------4-----4--2--2--0-|0-----0--0--2-----2--0-|
D|-----------------0--0--0-|0-----0--0--0-----0--0-|
A|--3--3--3--3--3----------|2-----2----------------|
E|-------------------------|3-----3----------------|

    on the wall Who’s on the wall Who’s 
    G                                                                                                                                                                                                                        D                                                                                                                                                                                                                                                                                                                                                                     G                                                                                                                                                                                                                        D                                                                                                                                                                                                                                                                                                                                                                     
E|--3-----3--0--2-----2----|0-----0-----0-----0----|
B|--3-----3--3--3-----3----|0-----0-----1-----1----|
G|--0-----0--0--2-----2--0-|0-----0--0--0-----0--0-|
D|--0-----0--0--0-----0--0-|2-----2--0--2-----2--0-|
A|--2-----2----------------|2-----2--0--3-----3--0-|
E|--3-----3----------------|0-----0----------------|

    us? us? 
    G                                                                                                                                                                                                                                                                                                                                                                                                                                                                                                                                                                                             G                                                                                                                                                                                                                                                                                                                                                                                                                                                                                                                                                                                             
E|--3-----3--3--3-----3----|0-----0-----0-----0----|
B|--3-----3--3--3-----3----|0-----0-----1-----1----|
G|--0-----0--0--0-----0--0-|0-----0--0--2-----2----|
D|--0-----0--0--0-----0--0-|2-----2--0--2-----2----|
A|--2-----2--2--2-----2--0-|2-----2--0--0-----0----|
E|--3-----3--3--3-----3----|0-----0----------------|

    Who’s gonna divide us? Who’s gonna divide us? 
    Em                                                                                                                                                                                                                        B5                                                                                                                                                                                                                                                                                                                                                                     Em                                                                                                                                                                                                                        B5                                                                                                                                                                                                                                                                                                                                                                     
E|--0-----0----------------|-----------------------|
B|--0-----0----------------|-----------------------|
G|--0-----0--0--4-----4----|4-----------4----------|
D|--2-----2--0--4-----4----|------5-----------5----|
A|--2-----2--0--2-----2----|3--3--3--3--3--3--3--3-|
E|--0-----0----------------|-----------------------|

    
                                                                                                                                                                                                                                                                                                    D                                                                                                                                                                                                                                                                                                                                                                                                                                                                                                                                                                                             D                                                                                                                                                                                                                                                                                             
E|-----------------2--2----|-----------------------|
B|-----------------3--3----|-----------------------|
G|--4-----4--------2--2--0-|------------------7----|
D|-----------------0--0--0-|------5--0--7--7--7--0-|
A|--3--3--3--3--3----------|5--5--5--0--5--5--5--0-|
E|-------------------------|3--3--3----------------|

    Trial devoured now Trial devoured now 
    G5                                                                                                                                                                                                                                                            D5                                                                                                                                                                                                                                                                                                                                 G5                                                                                                                                                                                                                                                            D5                                                                                                                                                                                                                                                                                                                                 
E|----------------------------|--------------------------|
B|----------------------------|--------------------------|
G|-----------------------7----|---------------------4----|
D|--------5--0--0--7--7--7--0-|------2--0--0--5--5--5--0-|
A|--5--5--5--0--0--5--5--5--0-|2--2--2--0--0--3--3--3--0-|
E|--3--3--3-------------------|0--0--0-------------------|

    leader____ leader____ 
    G5                                                                                                                                                                                                                                                                                                                                                                                                                                                                                                                                                                                             G5                                                                                                                                                                                                                                                                                                                                                                                                                                                                                                                                                                                             
E|----------------------------|---------------------0----|
B|----------------------------|---------------------1----|
G|----------------------------|---------------------2----|
D|--------5--------------5----|------2--0--0--2--2--2----|
A|--5--5--5--5--5--5--5--5--0-|2--2--2--0--0--0--0--0----|
E|--3--3--3--3--3--3--3--3--0-|0--0--0-------------------|

    But you know what they say But you know what they say 
    E5                                                                                                                                                                                                                                                            B5                                                                                                                                                                                                                                                                                                                                 E5                                                                                                                                                                                                                                                            B5                                                                                                                                                                                                                                                                                                                                 
E|-------------------------------|-----------------------|
B|-------------------------------|-----------------------|
G|-----------------------4-------|4-----------4----------|
D|--------2--0--0--4--4--4--5--5-|------5-----------5----|
A|--2--2--2--0--0--2--2--2--0--0-|3--3--3--3--3--3--3--3-|
E|--0--0--0----------------------|-----------------------|

    what they say what they say 
                                                                                                                                                                                                                                                                                                                                                                                                                                                                                                                                                                                                                                                                                                                                                                                                                                                                                                                                                                                                                                                                                                                                                                                              
E|-------------------------|-----------------------|
B|-------------------------|------------------3----|
G|--------4-----4----------|4-----------4----------|
D|-------------------------|------5----------------|
A|--3--3--3--3--3--3--3--3-|3--3--3--3--3--3--3--3-|
E|-------------------------|-----------------------|

    So So 
    G/C                                                                                                                                                                                                                                                                                                D5                                                                                                                                                                                                                                                                                             G/C                                                                                                                                                                                                                                                                                                D5                                                                                                                                                                                                                                                                                             
E|-------------------------|3-----3--0--2-----2--3-|
B|-----------------3--3----|3-----3--3--3-----3--3-|
G|--------4--4-----2--2----|0-----0--0--2-----2--0-|
D|-----------------0--0--0-|0-----0--0--0-----0--0-|
A|--3--3--3--3--3--------0-|2-----2----------------|
E|-------------------------|3-----3----------------|

    on the wall on the wall 
    G                                                                                                                                                                                                                        D                                                                                                                                                                                                                                                                                                                                                                     G                                                                                                                                                                                                                        D                                                                                                                                                                                                                                                                                                                                                                     
E|--3-----3--0--2-----2----|0-----0-----0-----0----|
B|--3-----3--3--3-----3----|0-----0-----1-----1----|
G|--0-----0--0--2-----2--0-|0-----0--0--0-----0--0-|
D|--0-----0--0--0-----0--0-|2-----2--0--2-----2--0-|
A|--2-----2----------------|2-----2--0--3-----3--0-|
E|--3-----3----------------|0-----0----------------|

    us? us? 
    G                                                                                                                                                                                                                                                                                                                                                                                                                                                                                                                                                                                             G                                                                                                                                                                                                                                                                                                                                                                                                                                                                                                                                                                                             
E|--3-----3--3--3-----3----|0-----0-----0-----0----|
B|--3-----3--3--3-----3----|0-----0-----1-----1----|
G|--0-----0--0--0-----0--0-|0-----0--0--2-----2----|
D|--0-----0--0--0-----0--0-|2-----2--0--2-----2----|
A|--2-----2--2--2-----2--0-|2-----2--0--0-----0----|
E|--3-----3--3--3-----3----|0-----0----------------|

    Who’s gonna divide us? Who’s gonna divide us? 
    Em                                                                                                                                                                                                                        B5                                                                                                                                                                                                                                                                                                                                                                     Em                                                                                                                                                                                                                        B5                                                                                                                                                                                                                                                                                                                                                                     
E|--0-----0----------------|-----------------------|
B|--0-----0----------------|------3-----------3----|
G|--0-----0--0--4-----4----|------4-----------4----|
D|--2-----2--0--4-----4--5-|5--5--5--5--5--5--5--5-|
A|--2-----2--0--2-----2--0-|3--3--3--3--3--3--3--3-|
E|--0-----0----------------|-----------------------|

    us? us? 
                                                                                                                                                                                                                                                                                                                                                                                                                                                                                                                                                                                                                                                                                                                                                                                                                                                                                                                                                                                                                                                                                                                                                                                              
E|-------------------------|-----------------------|
B|--------3-----------3----|------3-----------3----|
G|--------4-----------4----|------4-----------4----|
D|--5--5--5--5--5--5--5--5-|5--5--5--5--5--5--5--5-|
A|--3--3--3--3--3--3--3--3-|3--3--3--3--3--3--3--3-|
E|-------------------------|-----------------------|

    us? us? 
                                                                                                                                                                                                                                                                                                                                                                                                                                                                                                                                                                                                                                                                                                                                                                                                                                                                                                                                                                                                                                                                                                                                                                                              
E|-------------------------|-----------------------------|
B|--------3-----3----------|---------8--9---8p9--8-------|
G|--------4-----4----------|8-----------------------10-8-|
D|--5--5--5--5--5-----8----|-----------------------------|
A|--3--3--3--3--3----------|-----------------------------|
E|-------------------------|-----------------------------|

    
                                                                                                                                                                                                                                                                                                                                                                                                                                                                                                                                                                                                                                                                                                                                                                                                                                                                                                                                                                                                                                                                                                                                                                                              
E|-------------------------------|-----------------------|
B|-----------8--9---8p9--8-------|-----------------------|
G|--------------------------10-8-|---8--8--8-------------|
D|-------------------------------|------------9-----9--8-|
A|-------------------------------|-----------------------|
E|-------------------------------|-----------------------|

    
                                                                                                                                                                                                                                                                                                                                                                                                                                                                                                                                                                                                                                                                                                                                                                                                                                                                                                                                                                                                                                                                                                                                                                                              
E|----------------------------------|-----------------------------|
B|----------------------------------|---------8--9---8p9--8-------|
G|-----------------8--8--10p8-------|8-----------------------10-8-|
D|-----8------8p10-------------10p8-|-----------------------------|
A|----------------------------------|-----------------------------|
E|----------------------------------|-----------------------------|

    
                                                                                                                                                                                                                                                                                                                                                                                                                                                                                                                                                                                                                                                                                                                                                                                                                                                                                                                                                                                                                                                                                                                                                                                              
E|-------------------------------|-----------------------|
B|-----------8--9---8p9--8-------|------11----11----11---|
G|--------------------------10-10|------10-10-10-10-10---|
D|-------------------------------|-----------------------|
A|-------------------------------|-----------------------|
E|-------------------------------|-----------------------|

    
                                                                                                                                                                                                                                                                                                                                                                                                                                                                                                                                                                                                                                                                                                                                                                                                                                                                                                                                                                                                                                                                                                                                                                                              
E|-------------------------|-----------------------|
B|-------------------------|8--8--8--8--8--8--8----|
G|--8--------10/-----------|7--5--4--0--------5--0-|
D|-----------10/-----------|------------7--5-------|
A|-------------------------|-----------------------|
E|-------------------------|-----------------------|

About Who's Gonna Save Us? : "Who's Gonna Save Us?" is the first single from Modern ARTillery . It was released in Australia on 29 September 2003, as the single single was released on 2 March 2004 . The song reached 37 on the ARIA Singles Chart and also charted in the US . The song also chart "Rollicking, politically tinged track" is "crisp and on-point It was released in 2003. It was released as part of album Modern ARTillery. The genre is punk rock. The track was release in 2003. It is related to the album(s) - Modern ARTillery. The track has an affiliation to the band(s) - The Living End.

About The Living End : The Living End are an Australian punk rock band from Melbourne . The band rose to fame in 1997 after the release of their EP Second Solution / Prisoner of Society . Two of which reached the No. 4 on the Australian ARIA Singles Chart . The Band was nominated 27 times and won five awards at the Australian ARIA Music Awards . In October 2010 their debut album was listed in the book "100 Best Australian Albums" The Living End blend a range of styles (punk, rockabilly and flat out rock) with great success . Australian musicologist Ian McFarlane described the group as "one of Australia’s The Living End The group has many notable artists like Chris Cheney,Scott Owen,Andy Strachan. Their music is influenced by genres - punk rock pop punk rockabilly alternative rock.

About Modern Artillery : Modern Artillery (stylized as MODERN ARTillery) is the third studio album by Australian punk rock band The Living End . It is the first album to feature drummer Andy Strachan . The song "End of the World" is featured on the soundtrack for the video game Tony Hawk's Underground 2 . The song appeared in commercials for the documentary film Fahrenheit 9/11 ARIA publicised that album had officially achieved platinum status in It had a contribution from notable artists like Andy Strachan. It had an affiliation to bands - The Living End. Its music is influenced by genres - punk rock pop punk alternative rock electronic rock.

tabs and chords, guitar tabs, music transcription, music technology, deep learning, music information retrieval, transcribe into tabs & chords, chordify, music renditions, songsterr, reverbnation, tabulature, bollywood chords, ultimate guitar, yousician, guitar lessons, acoustic guitar, electric guitar, guitar tuner, 911 tabs