Guitar Tabs for Who Is Like The Lord - Paul Wilbur

(/) Slide Up  (\) Slide Down  (h) Hammer On  (p) Pull Off  (b) Bend (r) Release (v) Vibrato (x) Muted

Tabs for Song : 

Song lyrics here
E|--------------------------------------------------------
B|--------------------------------------------------------
G|--------------------------------------------------------
D|--------------------------------------------------------
A|--------------------3--2--3-----5-----5-----7-----7-----
E|--3--5--5--3--5-----------------------------------------

E|--------------------------------------------------------
B|--------------------------------------------------------
G|--------------------------------------------------------
D|--------------------------------------------------------
A|-----------------------2--3-----5-----5-----7-----7-----
E|--3--5--5--3--5-----5-----------------------------------

E|--------------------------------------------------------
B|--------------------------------------------------------
G|--------------------------------------------------------
D|--------------------------------------------------------
A|--------------------3--2--3-----5-----5-----7-----7-----
E|--3--5--5--3--5-----------------------------------------

E|--------------------------------------------------------
B|--------------------------------------------------------
G|--------------------------------------------------------
D|--------------------------------------------------------
A|-----------------------2--3-----5-----5-----7-----7-----
E|--3--5--5--3--5-----5-----------------------------------

Song lyrics here
E|--------------------------------------------------
B|--------------------------------------------------
G|--------------------------------------------------
D|--------------------------------------------------
A|--8--8--------8--7--5--7--------------------------
E|--------------------------------5-----3--5--------

E|--------------------------------------------------------
B|--------------------------------------------------------
G|--------------------------------------------------------
D|--------------------------------------------------------
A|--------------------3--2--3-----5-----5-----7-----7-----
E|--3--5--5--3--5-----------------------------------------



E|--------------------------------------------------------
B|--------------------------------------------------------
G|--------------------------------------------------------
D|--------------------------------------------------------
A|-----------------------2--3-----5-----5-----7-----7-----
E|--3--5--5--3--5-----5-----------------------------------

E|--------------------------------------------------------
B|--------------------------------------------------------
G|--------------------------------------------------------
D|--------------------------------------------------------
A|--------------------3--2--3-----5-----5-----7-----7-----
E|--3--5--5--3--5-----------------------------------------

E|--------------------------------------------------------
B|--------------------------------------------------------
G|--------------------------------------------------------
D|--------------------------------------------------------
A|-----------------------2--3-----5-----5-----7-----7-----
E|--3--5--5--3--5-----5-----------------------------------

E|--------------------------------------------------
B|--------------------------------------------------
G|--------------------------------------------------
D|--------------------------------------------------
A|--8--8--------8--7--5--7--------------------------
E|--------------------------------5-----3--5--------

E|--------------------------------------------------------------------------------------------------
B|--------------------------------------------------------------------------------------------------
G|--------------------------------------------------------------------------------------------------
D|--------------------------------------------------------------------------------------------------
A|--5-----------5-----------------------------------7-----------7-----------------2-----3-----3-----
E|--------------------------5-----------5-----------------------------------5-----------------------

E|-----------------------------------------------------------------------------------------------------------------------------
B|-----------------------------------------------------------------------------------------------------------------------------
G|-----------------------------------------------------------------------------------------------------------------------------
D|-----------------------------------------------------------------------------------------------------------------------------
A|--5-----------5-----------------------------------8-----------8-----------7-----5-----7--------5--------7-----5-----7--------
E|--------------------------5-----------5--------------------------------------------------------------------------------------

E|--------------------------------------------------------------------------------------------------
B|--------------------------------------------------------------------------------------------------
G|--------------------------------------------------------------------------------------------------
D|--------------------------------------------------------------------------------------------------
A|--------------------------------------3-----------------------------------------------3-----------
E|--3--5-----5--3--5-----5--3--5-----5--------5-----3--5-----5--3--5-----5--3--5-----5--------5-----

E|--------------------------------------------------------------------------------------------------
B|--------------------------------------------------------------------------------------------------
G|--------------------------------------------------------------------------------------------------
D|--------------------------------------------------------------------------------------------------
A|--------------------------------------3-----------------------------------------------3-----------
E|--3--5-----5--3--5-----5--3--5-----5--------5-----3--5-----5--3--5-----5--3--5-----5--------5-----

Paste any tab in acousterr's tab maker and we'll play it !!!
Now supports capo and sound effects for vibrato/pull-off/hammer/bends/mutes etc !!! Checkout help section
tabs and chords, guitar tabs, music transcription, music technology, deep learning, music information retrieval, transcribe into tabs & chords, chordify, music renditions, songsterr, reverbnation, tabulature, bollywood chords, ultimate guitar, yousician, guitar lessons, acoustic guitar, electric guitar, guitar tuner, 911 tabs