Guitar Tabs for Who Did You Think I Was

(/) Slide Up  (\) Slide Down  (h) Hammer On  (p) Pull Off  (b) Bend (r) Release (v) Vibrato (x) Muted



E|--------------x--x--------x--x-----------------
B|--------------x--x--------x--x-----------------
G|------5/6-----x--x--------x--x-----------------
D|------4/5-----x--x---5h7--x--x-----------5-----
A|--------------x--x--------x--x-----3--------3--
E|--5-----------x--x--------x--x-----------------


E|--------------x--x--------x--x--------------
B|--------------x--x--------x--x--------------
G|------5/6-----x--x--------x--x--------------
D|------4/5-----x--x---5h7--x--x--------------
A|--------------x--x--------x--x-----3-----5--
E|--5-----------x--x--------x--x--------------


E|--------------x--x--------x--x-----------------
B|--------------x--x--------x--x-----------------
G|------5/6-----x--x--------x--x-----------------
D|------4/5-----x--x---5h7--x--x-----------5-----
A|--------------x--x--------x--x-----3--------3--
E|--5-----------x--x--------x--x-----------------


E|--------------x--x--------x--x--------------
B|--------------x--x--------x--x--------------
G|------5/6-----x--x--------x--x--------------
D|------4/5-----x--x---5h7--x--x--------------
A|--------------x--x--------x--x-----3-----5--
E|--5-----------x--x--------x--x--------------



E|---------------------------------------------------------3h------------------------
B|--------------------------------------------------3------3h5--3--------------------
G|---------2h4------2h4--2--------------------------4--------------4--2--------------
D|---------2h-------2h------4--2--------------------5--------------------5--2--------
A|--------------------------------4--2-----------------------------------------5--2--0
E|--2-----------------------------------5--2--3--------------------------------------


E|-----------x--x--------x--x-----------------
B|-----------x--x--------x--x-----------------
G|---5/6-----x--x--------x--x-----------------
D|---4/5-----x--x---5h7--x--x-----------5-----
A|-----------x--x--------x--x-----3--------3--
E|----------x--x--------x--x------------------







tabs and chords, guitar tabs, music transcription, music technology, deep learning, music information retrieval, transcribe into tabs & chords, chordify, music renditions, songsterr, reverbnation, tabulature, bollywood chords, ultimate guitar, yousician, guitar lessons, acoustic guitar, electric guitar, guitar tuner, 911 tabs