Guitar Tabs for White Christmas

(/) Slide Up  (\) Slide Down  (h) Hammer On  (p) Pull Off  (b) Bend (r) Release (v) Vibrato (x) Muted

Tabs for Song : 
BPM : 100



E|----------------------------------------------------------------------------------------
B|--------------------------------------0--1--3--1--0--------------------------------------
G|-----------------------------0-----2-----------------2--0--------------------------2-----
D|--2-----3--2--1--2--3-----4--------------------------------------0--2-----2-----2--------
A|--------------------------------------------------------------3--------------------------
E|-----------------------------------------------------------------------------------------
   I'm   dreaming of a white christmas Just like ones i used to know    Where the treetops glisten 

E|--------------------------------------------------
B|--------------------------------------------------
G|--0-----------------0-----------------------------
D|--------------------------3--2-----3--2--0-----0--
A|-----3-----3-----3--------------------------3-----
E|--------------------------------------------------
   and children listen too hear sleighbells in the snow

E|---------------------------------------------------------------
B|-----------------------------------------0--1--3--1--0--------
G|--------------------------------0-----2-----------------2--0--
D|-----2-----3--2--1--2--3-----4--------------------------------
A|--------------------------------------------------------------
E|--------------------------------------------------------------
     I'm dreaming of a white christmas with every christmascard i write 
E|--------------------------------------------------------------------------
B|--------------------------------1-----------------------------------------
G|-----------------------2-----0-----------------------------2--------------
D|--------0--2-----2--2-----------------------0--2-----2--------------------
A|-----3-----------------------------------3--------------------2--2--2--3--
E|--------------------------------------------------------------------------
     may your days be merry and bright and may all your christmases be white
tabs and chords, guitar tabs, music transcription, music technology, deep learning, music information retrieval, transcribe into tabs & chords, chordify, music renditions, songsterr, reverbnation, tabulature, bollywood chords, ultimate guitar, yousician, guitar lessons, acoustic guitar, electric guitar, guitar tuner, 911 tabs