Guitar Tabs for When You Were Young

(/) Slide Up  (\) Slide Down  (h) Hammer On  (p) Pull Off  (b) Bend (r) Release (v) Vibrato (x) Muted

Tabs for Song : When you were young

Song lyrics here
E|--------------------------------------
B|--------9--------------9--------------
G|-----------11-------------11----------
D|-----9--------8-----9-----------------
A|--11-------------11----------11-------
E|--------------------------------------

E|-----------------------------------------------------------------------
B|-----------------9--------11----12----------0-----------------------0--
G|--------------9--------11----------13----16----------------------9--9--
D|-----------------------------------------------------------------------
A|-----------7--------9--------11-------14----------------------7--------
E|-----------------------------------------------------------------------

E|-----16-------------------16-------
B|--------19----16-------------19----
G|--16-------15----16----16----------
D|--------------------18----------18-
A|-----------------------------------
E|-----------------------------------



E|-----------------------------------------------
B|-----------------------------------------------
G|--11-13-8--------------------11-13-8-----------
D|-----------------------------------------------
A|-----------------------------------------------
E|-----------------------------------------------

E|-----------------------------------------------------------------------
B|-----------------9--------11----12----------0-----------------------0--
G|--------------9--------11----------13----16----------------------9--9--
D|-----------------------------------------------------------------------
A|-----------7--------9--------11-------14----------------------7--------
E|-----------------------------------------------------------------------


E|-----16-------------------16----------
B|--------19----16-------------19-------
G|--16-------15----16----16-------------
D|--------------------18----------18----2x
A|--------------------------------------
E|--------------------------------------

E|-----------------------------------------------------------------------
B|-----------------9--------11----12----------0-----------------------0--
G|--------------9--------11----------13----16----------------------9--9--
D|-----------------------------------------------------------------------
A|-----------7--------9--------11-------14----------------------7--------
E|-----------------------------------------------------------------------


E|-----------------------------------------------------------------------------------------------------------16----------------------
B|--16-16-16-16-16-16-16-16-16-16-16-16-16-16-16-16-16-16-16-16-------------------------------------------16----19----16----------16-
G|-----------------------------------------------------------------------------------------------------16----------15----16----16----
D|--------------------------------------------------------------16-16-16-18-18-18-18-18-18-18-18-18-18----------------------18-------
A|-----------------------------------------------------------------------------------------------------------------------------------
E|-----------------------------------------------------------------------------------------------------------------------------------

E|-----------16----------------------------------------------------------
B|--------------19-------------------------------------------------------
G|--16----16----------------9--9--9--8--8--8--6--6--6--------------------
D|-----18----------18-------9--9--9--8--8--8--6--6--6--9--9--9--8--6--4--
A|--------------------------7--7--7--6--6--6--4--4--4--9--9--9--8--6--4--
E|-----------------------------------------------------7--7--7--6--4--2--

E|-----------------------------------------------------------------------------------------
B|--5-----------------9-----------------12----------------11-------------12-------------11-
G|--6-----------------9-----------------13----------------11-------------13-------------11-
D|--6-----------------9-----------------13----------------13-------------13-------------11-
A|--------------------------------------------------------13-------------------------------
E|-----------------------------------------------------------------------------------------

E|--------------------------------11-11-11-11-11-11-11-11-11-11-11-11-11-11-11-11-11-11-11-11-
B|--------------------------------------------------------------------------------------------
G|--11----------------------------------------------------------------------------------------
D|--------------------------------------------------------------------------------------------
A|--------------------------------------------------------------------------------------------
E|--------------------------------------------------------------------------------------------

E|--------------------------------------14-14-14-14-14-14-14-14-14-14-14-14-14-14-14-14-14-14-14-14-
B|--------------------------------------------------------------------------------------------------
G|--11-11-11-13-13-13-13-13-13-13-13-13-------------------------------------------------------------
D|--------------------------------------------------------------------------------------------------
A|--------------------------------------------------------------------------------------------------
E|--------------------------------------------------------------------------------------------------

E|--------------------------------------
B|--------------------------------------
G|--11-11-11-13-13-13-13-13-13-13-13-13-
D|--------------------------------------
A|--------------------------------------
E|--------------------------------------

E|--------16-------------------------16-------------------------16-------------------
B|-----------19-------------------------19-------------------------19----16----------
G|-----16-------15----------------16-------------------------16-------15----16-------
D|--18-------------------------18----------18-------------18-------------------------
A|-----------------------------------------------------------------------------------2x
E|-----------------------------------------------------------------------------------

---------------------------------------------

Song lyrics here
E|--
B|--
G|--
D|--
A|--
E|--

Now supports capo and sound effects for vibrato/pull-off/hammer/bends/mutes etc !!! Checkout help section
tabs and chords, guitar tabs, music transcription, music technology, deep learning, music information retrieval, transcribe into tabs & chords, chordify, music renditions, songsterr, reverbnation, tabulature, bollywood chords, ultimate guitar, yousician, guitar lessons, acoustic guitar, electric guitar, guitar tuner, 911 tabs