Guitar Tabs for When You Open Your Eyes (nashville Cast)

(/) Slide Up  (\) Slide Down  (h) Hammer On  (p) Pull Off  (b) Bend (r) Release (v) Vibrato (x) Muted

Tabs for Song : 
BPM : 200
Tuning: C# G# F C# G# C# or CGECGC with capo on 1st fret

Intro 
C|--0--0--0--0--9--9--9--9--5--5--5--5--5--5--5--5--
G|--------------------------------------------------
F|---0--0--0--0--0--0--0--0--0--0--0--0--0-----5--4-
C|---0--0--0--0--8--8--8--8--5--5--5--5--5----------
G|------------------------------------------0-------
C|--------------------------------------------------

C|--0--0--0--0--9--9--9--9--5--5--5--5--5--5--5--5--
G|--------------------------------------------------
F|---0--0--0--0--0--0--0--0--0--0--0--0--0--0--0--0-
C|---0--0--0--0--8--8--8--8--5--5--5--5--5--5--5--5-
G|--------------------------------------------------
C|--------------------------------------------------

When you close your eyes you can only go back
C|--5--5--5--5--9--9--9--9--0--0--0--0--0--0--0--0--
G|--------------------------------------------------
F|---0--0--0--0--0--0--0--0--0--0--0--0--0--0--0--0-
C|---5--5--5--5--8--8--8--8--0--0--0--0--0--0--0--0-
G|--------------------------------------------------
C|--------------------------------------------------

To the place in your mind where it all goes off track
C|--5--5--5--5--9--9--9--9--0--0--0--0--0--0--0--0--
G|--------------------------------------------------
F|---0--0--0--0--0--0--0--0--0--0--0--0--0--0--0--0-
C|---5--5--5--5--8--8--8--8--0--0--0--0--0--3--0--0-
G|--------------------------------------------------
C|--------------------------------------------------

Staying up all night staring at the ceiling fan
C|--5--5--5--5--9--9--9--9--12-12-12-12-12-12-12-12-
G|--------------------------------------------------
F|---0--0--0--0--0--0--0--0--0--0--0--0--0--0--0--0-
C|---5--5--5--5--8--8--8--8--12-12-12-12-12-12-12-12
G|--------------------------------------------------
C|--------------------------------------------------

Round and round you go
C|--7--7--7--7--4--4--4--4--5--5--5--5--5--5--7--7--
G|--------------------------------------------------
F|---0--0--0--0--0--0--0--0--0--0--0--0--0--0--0--0-
C|---7--7--7--7--3--3--3--3--5--5--5--5--5--5--7--7-
G|--------------------------------------------------
C|--------------------------------------------------

Breathe, let it all go...
C|--5--5--5--5--9--9--9--9--7--7--7--7--12-12-7--7--
G|--------------------------------------------------
F|---0--0--0--0--0--0--0--0--0--0--0--0--0--0--0--0-
C|---5--5--5--5--8--8--8--8--7--7--7--7--12-12-7--7-
G|--------------------------------------------------
C|--------------------------------------------------

..by, breathe I'm always by your
C|--5--5--5--5--9--9--9--9--7--7--7--7--12-12-7--7--
G|--------------------------------------------------
F|---0--0--0--0--0--0--0--0--0--0--0--0--0--0--0--0-
C|---5--5--5--5--8--8--8--8--7--7--7--7--12-12-7--7-
G|--------------------------------------------------
C|--------------------------------------------------

side, lean on me...
C|--5--5--5--5--9--9--9--9--7--7--7--7--4--4--4--4--
G|--------------------------------------------------
F|---0--0--0--0--0--0--0--0--0--0--0--0--0--0--0--0-
C|---5--5--5--5--8--8--8--8--7--7--7--7--3--3--3--3-
G|--------------------------------------------------
C|--------------------------------------------------

...now, still be here when you open your eyes
C|--5--5--5--5--5--5--5--5------5-
G|--------------------------------
F|---0--0--0--0--0--0--0--0-----0-
C|---5--5--5--5--5--5--5--5-----5-
G|--------------------------------
C|--------------------------------

When the sun breaks through and you're feeling strong
C|--5--5--5--5--9--9--9--9--12-12-12-12-12-12-12-12-
G|--------------------------------------------------
F|---0--0--0--0--0--0--0--0--0--0--0--0--0--0--0--0-
C|---5--5--5--5--8--8--8--8--12-12-12-12-12-12-12-12
G|--------------------------------------------------
C|--------------------------------------------------

When you give your best but it still goes wrong
C|--5--5--5--5--9--9--9--9--12-12-12-12-12-12-12-12-
G|--------------------------------------------------
F|---0--0--0--0--0--0--0--0--0--0--0--0--0--0--0--0-
C|---5--5--5--5--8--8--8--8--12-12-12-12-12-12-12-12
G|--------------------------------------------------
C|--------------------------------------------------

Either way I'll always be your home
C|--5--5--5--5--9--9--9--9--12-12-12-12-12-12-12-12-
G|--------------------------------------------------
F|---0--0--0--0--0--0--0--0--0--0--0--0--0--0--0--0-
C|---5--5--5--5--8--8--8--8--12-12-12-12-12-12-12-12
G|--------------------------------------------------
C|--------------------------------------------------

Through the highs and lows
C|--7--7--7--7--4--4--4--4--5--5--5--5--5--5--5--5--
G|--------------------------------------------------
F|---0--0--0--0--0--0--0--0--0--0--0--0--0--0--0--0-
C|---7--7--7--7--3--3--3--3--5--5--5--5--5--5--5--5-
G|--------------------------------------------------
C|--------------------------------------------------

Round and round we go
C|--7--7--7--7--4--4--4--4--5--5--5--5--5--5--7--7--
G|--------------------------------------------------
F|---0--0--0--0--0--0--0--0--0--0--0--0--0--0--0--0-
C|---7--7--7--7--3--3--3--3--5--5--5--5--5--5--7--7-
G|--------------------------------------------------
C|--------------------------------------------------

Breathe, let it all go...
C|--5--5--5--5--9--9--9--9--7--7--7--7--12-12-7--7--
G|--------------------------------------------------
F|---0--0--0--0--0--0--0--0--0--0--0--0--0--0--0--0-
C|---5--5--5--5--8--8--8--8--7--7--7--7--12-12-7--7-
G|--------------------------------------------------
C|--------------------------------------------------

..by, breathe I'm always by your
C|--5--5--5--5--9--9--9--9--7--7--7--7--12-12-7--7--
G|--------------------------------------------------
F|---0--0--0--0--0--0--0--0--0--0--0--0--0--0--0--0-
C|---5--5--5--5--8--8--8--8--7--7--7--7--12-12-7--7-
G|--------------------------------------------------
C|--------------------------------------------------

side, lean on me...
C|--5--5--5--5--9--9--9--9--7--7--7--7--4--4--4--4--
G|--------------------------------------------------
F|---0--0--0--0--0--0--0--0--0--0--0--0--0--0--0--0-
C|---5--5--5--5--8--8--8--8--7--7--7--7--3--3--3--3-
G|--------------------------------------------------
C|--------------------------------------------------

...now, still be here when you open your eyes
C|--5--5--5--5--5--5--5--5--5--5--5--5--7--7--7--7--
G|--------------------------------------------------
F|---0--0--0--0--0--0--0--0--0--0--0--0--0--0--0--0-
C|---5--5--5--5--5--5--5--5--5--5--5--5--7--7--7--7-
G|--------------------------------------------------
C|--------------------------------------------------

Ooooh, when you open your eyes
C|--9--9--12-12-7--7--12-12-5--5--5--5--7--7--7--7--
G|--------------------------------------------------
F|---0--0--0--0--0--0--0--0--0--0--0--0--0--0--0--0-
C|---8--8--12-12-7--7--12-12-5--5--5--5--7--7--7--7-
G|--------------------------------------------------
C|--------------------------------------------------

Ooooh, 
C|--9--9--12-12-7--7--12-12-5--5--5--5--5--5--7--7--
G|--------------------------------------------------
F|---0--0--0--0--0--0--0--0--0--0--0--0--0--0--0--0-
C|---8--8--12-12-7--7--12-12-5--5--5--5--5--5--7--7-
G|--------------------------------------------------
C|--------------------------------------------------

Breathe....
C|--5--9--7-
G|----------
F|--0--0--0-
C|--5--8--7-
G|--0--0--0-
C|--0--0--0-

Breathe, let it all go by (strum)
Breathe, I'm always by your side
C|--5--9--7--12--7--5--9--7--12--7--5
G|-----------------------------------
F|--0--0--0---0--0--0--0--0---0--0--0
C|--5--8--7--12--7--5--8--7--12--7--5
G|--0--0--0---0--0--0--0--0---0--0--0
C|--0--0--0---0--0--0--0--0---0--0--0

Lean on me now, I'll still be here when you open your eyes
C|--9--7--4--5----------5--
G|-------------------------
F|--0--0--0--0----------0--
C|--8--7--3--5----------5--
G|--0--0--0--0----------0--
C|--0--0--0--0----------0--

Ooooh, when you open your eyes
C|--0--0--0--0--9--9--9--9--5--5--5--5--5--5--5--5--
G|--------------------------------------------------
F|---0--0--0--0--0--0--0--0--0--0--0--0--0-----5--4-
C|---0--0--0--0--8--8--8--8--5--5--5--5--5----------
G|------------------------------------------0-------
C|--------------------------------------------------

Ooooh, when you open your eyes
C|--0--0--0--0--9--9--9--9--5--5--5--5--5--5--5--5--
G|--------------------------------------------------
F|---0--0--0--0--0--0--0--0--0--0--0--0--0-----5--4-
C|---0--0--0--0--8--8--8--8--5--5--5--5--5----------
G|------------------------------------------0-------
C|--------------------------------------------------

Ooooh, when you open your eyes
C|--0--0--0--0--9--9--9--9--5--5--5--5--5--5--5--5---0--
G|---------------------------------------------------0--
F|---0--0--0--0--0--0--0--0--0--0--0--0--0-----5--4--0--
C|---0--0--0--0--8--8--8--8--5--5--5--5--5-----------0--
G|------------------------------------------0--------0--
C|---------------------------------------------------0--

Use manual mode to free up cursor. Paste any tab in acousterr tab maker and we'll play it !!!



tabs and chords, guitar tabs, music transcription, music technology, deep learning, music information retrieval, transcribe into tabs & chords, chordify, music renditions, songsterr, reverbnation, tabulature, bollywood chords, ultimate guitar, yousician, guitar lessons, acoustic guitar, electric guitar, guitar tuner, 911 tabs