Guitar Tabs for When The Party's Over

(/) Slide Up  (\) Slide Down  (h) Hammer On  (p) Pull Off  (b) Bend (r) Release (v) Vibrato (x) Muted

Tabs for Song : 
BPM :100


Song lyrics here 
E|--------------------------------------------------------------0-----------0-----2--4--2--4--2--4--7--
B|--------------------------0-----------0--2--0--2--0--2--0--2-----------------------------------------
G|-----------1-----1-----1-----------------------------------------------------------------------------
D|--2-----4-----4-----4--------------------------------------------------------------------------------
A|-----------------------------------------------------------------------------------------------------
E|-----------------------------------------------------------------------------------------------------

E|--0--9--7--9--7--9--7--9--12----------12-11-9--11-9--7--4-----7--4-----0--0-----0--2--4--------------
B|-----------------------------------------------------------------------------------------------------
G|-----------------------------------------------------------------------------------------------------
D|-----------------------------------------------------------------------------------------------------
A|-----------------------------------------------------------------------------------------------------
E|-----------------------------------------------------------------------------------------------------

E|--5--4--5--4--2--4--2--4--0--------0--2--4-----5--4--5--4--2--4--2--4--0-----------------------------
B|-----------------------------2--------------------------------------------2--------------------------
G|-----------------------------------------------------------------------------------------------------
D|-----------------------------------------------------------------------------------------------------
A|-----------------------------------------------------------------------------------------------------
E|-----------------------------------------------------------------------------------------------------

E|-----0--------0--------0-----------------------0-----0-----4--4--2--0--------2-----2--2--4--2--------
B|-----------2-----4--------2--2-----0--------2-----2-----2--------------------------------------2-----
G|-----------------------------------------------------------------------------------------------------
D|-----------------------------------------------------------------------------------------------------
A|-----------------------------------------------------------------------------------------------------
E|-----------------------------------------------------------------------------------------------------

E|--2--4--0-----------------------------0-----------------------------------------5--4--5-----4--2-----
B|-----------4--------2--------------------4--2--4--2--0-----0-----------------------------------------
G|--------------------------------------------------------1--------------------------------------------
D|--------------------------------------------------------------2-----2--------------------------------
A|-----------------------------------------------------------------------------------------------------
E|-----------------------------------------------------------------------------------------------------

E|--4--2--4--0-----4--2--4--0-----------5--4--5-----4--2--4--2--4--0-----4--2--4--0--------------------
B|-----------------------------2-----------------------------------------------------2-----------------
G|-----------------------------------------------------------------------------------------------------
D|-----------------------------------------------------------------------------------------------------
A|-----------------------------------------------------------------------------------------------------
E|-----------------------------------------------------------------------------------------------------

E|--5--4--5-----4--2--4--2--4-----0-----4--2--4-----0--------------------------------------------------
B|--------------------------------------------------------2--------------------------------------------
G|-----------------------------------------------------------------------------------------------------
D|-----------------------------------------------------------------------------------------------------
A|-----------------------------------------------------------------------------------------------------
E|-----------------------------------------------------------------------------------------------------

Song lyrics here 
E|--
B|--
G|--
D|--
A|--
E|--

Use manual mode to free up cursor. Paste any tab in acousterr tab maker and we'll play it !!!
tabs and chords, guitar tabs, music transcription, music technology, deep learning, music information retrieval, transcribe into tabs & chords, chordify, music renditions, songsterr, reverbnation, tabulature, bollywood chords, ultimate guitar, yousician, guitar lessons, acoustic guitar, electric guitar, guitar tuner, 911 tabs