Guitar Tabs for When The Lady Smiles Solo

(/) Slide Up  (\) Slide Down  (h) Hammer On  (p) Pull Off  (b) Bend (r) Release (v) Vibrato (x) Muted

Tabs for Song : When the lady smiles solo


E|-----------------------------------------------------------------------------------------------------------------------
B|-----------------------------------------------------------------------------------------------------------------------
G|-----------------------------------------------------------------------------------------------------------------------
D|-----------------------1--------------------1--1--------1--------------------------------------------------------------
A|--------2-----------2-----4--2-----------2--------4--------4--2-----2--2--------------2--------------2--------2--------
E|--2--4--------2--4-----------------2--4--------------------------4--------4-----2--4-----4--2--2--4-----2--4-----4--0--


E|--------------------------------------------------------------------------------------------------------------------------------
B|--------------------------------------------------------------------------------------------------------------------------------
G|--------------------------------------------------------------------------------------------------------------------------------
D|--------------1--1--------1--------------------------1--1--------1--------------------------------------------------------------
A|--------2-----------4--------4--2-----2-----------2--------4--------4--2-----2--2--------------2--------------2--------2--------
E|--2--4-----4-----------------------4--------2--4--------------------------4--------4-----2--4-----4--2--2--4-----2--4-----4--0--


E|--------------------------------------------------------------------------------------------
B|--------------------------------------------------------------------------------------------
G|--------------------------------------------------------------------------------------------
D|--------------1--1--------1-----------------------------------------------------------------
A|--------2-----------4--------4--2-----2--2--------------2--------------2-----------2-----2--
E|--2--4-----4-----------------------4--------4-----2--4-----4--2--2--4--------2--4-----4-----

E|--------------------------------------------------------------------------
B|--------------------------------------------------------------------------
G|--------------------------1-----4--1--4--1--1--4--1--4--4--1--1--4--4--1--
D|--------------------1--4-----4--------------------------------------------
A|-----2--2-----2--4--------------------------------------------------------
E|--4--------4--------------------------------------------------------------
tabs and chords, guitar tabs, music transcription, music technology, deep learning, music information retrieval, transcribe into tabs & chords, chordify, music renditions, songsterr, reverbnation, tabulature, bollywood chords, ultimate guitar, yousician, guitar lessons, acoustic guitar, electric guitar, guitar tuner, 911 tabs