Guitar Tabs for When I Was Your Man / Shorter Version / Music Tech

(/) Slide Up  (\) Slide Down  (h) Hammer On  (p) Pull Off  (b) Bend (r) Release (v) Vibrato (x) Muted

Tabs for Song : 

Verse 1
E|--0--0--0-----0--0-----0-----------0--1--1--------------------------------------------------0--0-----
B|-----------3--------3-----3--1-----------------------3--3--3--1--3--1--3-----3--1--------3-----------
G|-----------------------------------------------------------------------------------2-----------------
D|-----------------------------------------------------------------------------------------------------
A|-----------------------------------------------------------------------------------------------------
E|-----------------------------------------------------------------------------------------------------

E|--0--0--0-----0--0-----0--------------0--1--3--1--0--------------------------------------------0--------------------
B|-----------3--------3-----3--1-----------------------3-----------3--3--3--1--3--1-----3--1--3-----1-----------------
G|--------------------------------------------------------------------------------------------------------------------
D|--------------------------------------------------------------------------------------------------------------------
A|--------------------------------------------------------------------------------------------------------------------
E|--------------------------------------------------------------------------------------------------------------------

Refain 
E|-----------------8-----7-----5--3-----7-----------1--1--1--1--1--1--0-----1--0--
B|--0--1--3-----0-----------------------------------------------------------------
G|-----------2--------------------------------------------------------------------
D|--------------------------------------------------------------------------------
A|--------------------------------------------------------------------------------
E|--------------------------------------------------------------------------------

Chorus
E|-----5-----3--0--3-----5--0--0--------------------1--0--------5--3--0--3-----5--0-----------------0-----0-----
B|--1-----------------------------3-----------0--2-----------------------------------3-----------------3-----1--
G|--------------------------------------------------------------------------------------------0--2--------------
D|--------------------------------------------------------------------------------------------------------------
A|--------------------------------------------------------------------------------------------------------------
E|--------------------------------------------------------------------------------------------------------------

E|--5-----5--3--3-----8-----5--5--3--3--3-----8-----5-----3-----3--3--1--0-----0--3-----5--
B|--------------------------------------------------------------------------3--------------
G|-----------------------------------------------------------------------------------------
D|-----------------------------------------------------------------------------------------
A|-----------------------------------------------------------------------------------------
E|-----------------------------------------------------------------------------------------

E|--3-----3-----8--0--------------------0-----------------
B|--------------------3--1--------1--3-----3--1--3--1--1--
G|-----------------------------2--------------------------
D|--------------------------------------------------------
A|--------------------------------------------------------
E|--------------------------------------------------------

Verse 2
E|--0-----0-----0-----------------0--0--0-----0--0-----0-----------0--1--1--------------------------------------------------0--0--
B|-----------------------------------------3--------3-----3--1-----------------------3--3--3--1--3--1--3-----3--1--------3--------
G|-----0-----0-----0--4--0-----------------------------------------------------------------------------------------2--------------
D|--------------------------------------------------------------------------------------------------------------------------------
A|--------------------------------------------------------------------------------------------------------------------------------
E|--------------------------------------------------------------------------------------------------------------------------------

E|--0--3-----5--5-----8--8--7--7--5--3--3--------5--5--3--1-----0-----------------
B|-----------------------------------------------------------------3--1-----------
G|-----------------------------------------------------------------------2--------
D|--------------------------------------------------------------------------------
A|--------------------------------------------------------------------------------
E|--------------------------------------------------------------------------------

E|--------------------------------------0-----------------
B|--3--3-----3--1--3--1--------3--1--3-----1-----0--1--3--
G|--------------------------------------------------------
D|--------------------------------------------------------
A|--------------------------------------------------------
E|--------------------------------------------------------

Refrain
E|----------------8-----7-----5--3-----7-----------1--1--1--1--1--1--0-----1--0---
B|--0--1--3-----0-----------------------------------------------------------------
G|-----------2--------------------------------------------------------------------
D|--------------------------------------------------------------------------------
A|--------------------------------------------------------------------------------
E|--------------------------------------------------------------------------------

Chrous
E|-----5---3--0--3--5--0--0----------------0--------5---5--3--0--3--5--0-------------------------------0-----0-----0---
B|--1-----------------------3-----------1--------------------------------------3-----------1--------------3-----3--------
G|--------------------------------0--2-----------------------------------------------0--2-----0--0-----------------------
D|-----------------------------------------------------------------------------------------------------------------------
A|-----------------------------------------------------------------------------------------------------------------------
E|-----------------------------------------------------------------------------------------------------------------------

E|--3-----0--0--3--5--3--3-----1-----1-----0--------------------0-----------------------1-----------------
B|--------------------------------------------3--1--3--3--1--3--------1-----1--------------3--1--1--------
G|-----------------------------------------------------------------------2-----------0--------------------
D|--------------------------------------------------------------------------------------------------------
A|--------------------------------------------------------------------------------------------------------
E|--------------------------------------------------------------------------------------------------------

E|-----------0--------------------0--------------
B|--3--3--3--------1-----1-----------3--1-----1--
G|--------------------2--------0-----------------
D|-----------------------------------------------
A|-----------------------------------------------
E|-----------------------------------------------




-




-

Paste any tab in acousterr's tab maker and we'll play it !!!
Now supports capo and sound effects for vibrato/pull-off/hammer/bends/mutes etc !!! Checkout help section
tabs and chords, guitar tabs, music transcription, music technology, deep learning, music information retrieval, transcribe into tabs & chords, chordify, music renditions, songsterr, reverbnation, tabulature, bollywood chords, ultimate guitar, yousician, guitar lessons, acoustic guitar, electric guitar, guitar tuner, 911 tabs