What Happens To Me - Michael Schenker Group - Guitar Tabs

Guitar Rhythm 1
    
                                                                                                                                                                                                                                                                                                                                                                                                                                                                                                                                                                                                 
E|-------------------------|
B|--------0--1-------------|
G|-----2--------2--------2-|
D|-----------------2--3----|
A|--0----------------------|
E|-------------------------|

    
                                                                                                                                                                                                                                                                                                                                                                                                                                                                                                                                                                                                                                                                                                                                                                                                                                                                                                                                                                                                                                                                                                                                                                                              
E|--------------------0----|-----------------------|
B|--0--1-----------------0-|3-----------0--1-------|
G|--------2--------4-------|---4-----2--------2----|
D|-----------3--5----------|-----------------------|
A|-------------------------|------0--------------0-|
E|-------------------------|-----------------------|

    
                                                                                                                                                                                                                                                                                                                                                                                                                                                                                                                                                                                                                                                                                                                                                                                                                                                                                                                                                                                                                                                                                                                                                                                              
E|-------------------------|-----------------------|
B|--------0--1-------------|0--1--------------0--3-|
G|-----2--------2--------2-|------2--------4-------|
D|-----------------2--3----|---------3--5----------|
A|--0----------------------|-----------------------|
E|-------------------------|-----------------------|

    
                                                                                                                                                                                                                                                                                                                                                                                                                                                                                                                                                                                                                                                                                                                                                                                                                                                                                                                                                                                                                                                                                                                                                                                              
E|-------------------------|-----------------------|
B|--------------5----------|------0--1-------------|
G|--4--------4-----4--7----|---2--------2--------2-|
D|-----5--6--------------5-|---------------2--3----|
A|-------------------------|0----------------------|
E|-------------------------|-----------------------|

    
                                                                                                                                                                                                                                                                                                                                                                                                                                                                                                                                                                                                                                                                                                                                                                                                                                                                                                                                                                                                                                                                                                                                                                                              
E|--------------------0----|-----------------------|
B|--0--1-----------------0-|3-----------0--1-------|
G|--------2--------4-------|---4-----2--------2----|
D|-----------3--5----------|---------------------2-|
A|-------------------------|------0----------------|
E|-------------------------|-----------------------|

    
                                                                                                                                                                                                                                                                                                                                                                                                                                                                                                                                                                                                                                                                                                                                                                                                                                                                                                                                                                                                                                                                                                                                                                                              
E|-------------------------|-----------------------|
B|--------0--1-------------|0--1--------------1----|
G|-----2--------2--------2-|------2--------2-----2-|
D|--3--------------3--0----|---------0--2----------|
A|-------------------------|-----------------------|
E|-------------------------|-----------------------|

    
                                                                                                                                                                                                                                                                                                                                                                                                                                                                                                                                                                                                                                                                                                                                                                                                                                                                                                                                                                                                                                                                                                                                                                                              
E|--------0----------------|-----------------------|
B|--0--------0--1--------1-|------0--1-------------|
G|-----------------2-------|---2--------2--------2-|
D|-----2--------------2----|---------------2--3----|
A|-------------------------|0----------------------|
E|-------------------------|-----------------------|

    
                                                                                                                                                                                                                                                                                                                                                                                                                                                                                                                                                                                                                                                                                                                                                                                                                                                                                                                                                                                                                                                                                                                                                                                              
E|--------------------0----|-----------------------|
B|--0--1-----------------0-|3-----------0--1-------|
G|--------2--------4-------|---4-----2--------2----|
D|-----------3--5----------|-----------------------|
A|-------------------------|------0--------------0-|
E|-------------------------|-----------------------|

    
                                                                                                                                                                                                                                                                                                                                                                                                                                                                                                                                                                                                                                                                                                                                                                                                                                                                                                                                                                                                                                                                                                                                                                                              
E|-------------------------|-----------------------|
B|--------0--1-------------|0--1--------------0--3-|
G|-----2--------2--------2-|------2--------4-------|
D|-----------------2--3----|---------3--5----------|
A|--0----------------------|-----------------------|
E|-------------------------|-----------------------|

    
                                                                                                                                                                                                                                                                                                                                                                                                                                                                                                                                                                                                                                                                                                                                                                                                                                                                                                                                                                                                                                                                                                                                                                                              
E|-------------------------|-----------------------|
B|--------------5----------|------0--1-------------|
G|--4--------4-----4--7----|---2--------2--------2-|
D|-----5--6--------------5-|---------------2--3----|
A|-------------------------|0----------------------|
E|-------------------------|-----------------------|

    
                                                                                                                                                                                                                                                                                                                                                                                                                                                                                                                                                                                                                                                                                                                                                                                                                                                                                                                                                                                                                                                                                                                                                                                              
E|--------------------0----|-----------------------|
B|--0--1-----------------0-|3-----------0--1-------|
G|--------2--------4-------|---4-----2--------2----|
D|-----------3--5----------|---------------------2-|
A|-------------------------|------0----------------|
E|-------------------------|-----------------------|

    
                                                                                                                                                                                                                                                                                                                                                                                                                                                                                                                                                                                                                                                                                                                                                                                                                                                                                                                                                                                                                                                                                                                                                                                              
E|-------------------------|-----------------------|
B|--------0--1-------------|0--1--------------0----|
G|-----2--------2--------2-|------2--------------0-|
D|--3--------------3--2----|---------------0-------|
A|-------------------------|---------0-------------|
E|-------------------------|------------3----------|

    
                                                                                                                                                                                                                                                                                                                                                                                                                                                                                                                                                                                                                                                                                                                                                                                                                                                                                                                                                                                                                                                                                                                                                                                              
E|--------------0----------|-----------------------|
B|-----------------0-------|------0--1-------------|
G|--------------------4----|---2--------2--------2-|
D|--0--------6-----------6-|---------------2--3----|
A|-------------------------|0----------------------|
E|-----3--0----------------|-----------------------|

    
                                                                                                                                                                                                                                                                                                                                                                                                                                                                                                                                                                                                                                                                                                                                                                                                                                                                                                                                                                                                                                                                                                                                                                                              
E|--------------------0----|-----------------------|
B|--0--1-----------------0-|3-----------0--1-------|
G|--------2--------4-------|---4-----2--------2----|
D|-----------3--5----------|-----------------------|
A|-------------------------|------0--------------0-|
E|-------------------------|-----------------------|

    
                                                                                                                                                                                                                                                                                                                                                                                                                                                                                                                                                                                                                                                                                                                                                                                                                                                                                                                                                                                                                                                                                                                                                                                              
E|-------------------------|-----------------------|
B|--------0--1-------------|0--1--------------0--3-|
G|-----2--------2--------2-|------2--------4-------|
D|-----------------2--3----|---------3--5----------|
A|--0----------------------|-----------------------|
E|-------------------------|-----------------------|

    
                                                                                                                                                                                                                                                                                                                                                                                                                                                                                                                                                                                                                                                                                                                                                                                                                                                                                                                                                                                                                                                                                                                                                                                              
E|-------------------------|-----------------------|
B|--------------5----------|------0--1-------------|
G|--4--------4-----4--7----|---2--------2--------2-|
D|-----5--6--------------5-|---------------2--3----|
A|-------------------------|0----------------------|
E|-------------------------|-----------------------|

    
                                                                                                                                                                                                                                                                                                                                                                                                                                                                                                                                                                                                                                                                                                                                                                                                                                                                                                                                                                                                                                                                                                                                                                                              
E|--------------------0----|-----------------------|
B|--0--1-----------------0-|3-----------0--1-------|
G|--------2--------4-------|---4-----2--------2----|
D|-----------3--5----------|---------------------2-|
A|-------------------------|------0----------------|
E|-------------------------|-----------------------|

    
                                                                                                                                                                                                                                                                                                                                                                                                                                                                                                                                                                                                                                                                                                                                                                                                                                                                                                                                                                                                                                                                                                                                                                                              
E|-------------------------|-----------------------|
B|--------0--1-------------|0--3-------------------|
G|-----2--------2--------4-|------4----------------|
D|--3--------------3--5----|-----------------------|
A|-------------------------|-----------------------|
E|-------------------------|-----------------------|

    
                                                                                                                                                                                                                                                                                                                                                                                                                                                                                                                                                                                                                                                                                                                                                                                                                                                                                                                                                                                                                                                                                                                                                                                              
E|--------0----------------|3-----------------1----|
B|-----------1-------------|---3-----------------3-|
G|--------------0----------|------0--------2-------|
D|-----2-----------2-----0-|---------0--0----------|
A|--3----------------------|-----------------------|
E|--------------------3----|-----------------------|

    
                                                                                                                                                                                                                                                                                                                                                                                                                                                                                                                                                                                                                                                                                                                                                                                                                                                                                                                                                                                                                                                                                                                                                                                              
E|--------------0----------|------------0----------|
B|-----------------1-------|------0--1-----1-------|
G|--2-----------------2----|-----------------------|
D|-----0-----2-----------2-|---3-----------------0-|
A|--------0----------------|3----------------------|
E|-------------------------|------------------3----|

    
                                                                                                                                                                                                                                                                                                                                                                                                                                                                                                                                                                                                                                                                                                                                                                                                                                                                                                                                                                                                                                                                                                                                                                                              
E|--3-----------------3----|------------0----------|
B|-----3-----------------3-|---------------1-------|
G|--------0----------------|0-----------------0----|
D|-----------0-----0-------|---0-----2-----------2-|
A|-------------------------|------3----------------|
E|--------------3----------|-----------------------|

    
                                                                                                                                                                                                                                                                                                                                                                                                                                                                                                                                                                                                                                                                                                                                                                                                                                                                                                                                                                                                                                                                                                                                                                                              
E|--------3----------------|1-----------------0----|
B|-----------3-------------|---3-----------------1-|
G|--------------0--------2-|------2----------------|
D|-----0-----------0--0----|---------0-----2-------|
A|-------------------------|------------0----------|
E|--3----------------------|-----------------------|

    
                                                                                                                                                                                                                                                                                                                                                                                                                                                                                                                                                                                                                                                                                                                                                                                                                                                                                                                                                                                                                                                                                                                                                                                              
E|--------------------0----|------3----------------|
B|--------------0--1-----1-|---------3-------------|
G|--2----------------------|------------0----------|
D|-----2-----3-------------|---0-----------0-----0-|
A|--------3----------------|-----------------------|
E|-------------------------|3-----------------3----|

    
                                                                                                                                                                                                                                                                                                                                                                                                                                                                                                                                                                                                                                                                                                                                                                                                                                                                                                                                                                                                                                                                                                                                                                                              
E|--3----------------------|3----------------------|
B|-----3--------------0----|---3--------------0----|
G|--------0--------------0-|------0--------------0-|
D|-----------0-----0-------|---------0-----0-------|
A|-------------------------|-----------------------|
E|--------------3----------|------------3----------|

    
                                                                                                                                                                                                                                                                                                                                                                                                                                                                                                                                                                                                                                                                                                                                                                                                                                                                                                                                                                                                                                                                                                                                                                                              
E|-------------------------|------------------0----|
B|--------0--1-------------|0--1-----------------0-|
G|-----2--------2--------2-|------2--------4-------|
D|-----------------2--3----|---------3--5----------|
A|--0----------------------|-----------------------|
E|-------------------------|-----------------------|

    
                                                                                                                                                                                                                                                                                                                                                                                                                                                                                                                                                                                                                                                                                                                                                                                                                                                                                                                                                                                                                                                                                                                                                                                              
E|-------------------------|-----------------------|
B|--3-----------0--1-------|------0--1-------------|
G|-----4-----2--------2----|---2--------2--------2-|
D|-------------------------|---------------2--3----|
A|--------0--------------0-|0----------------------|
E|-------------------------|-----------------------|

    
                                                                                                                                                                                                                                                                                                                                                                                                                                                                                                                                                                                                                                                                                                                                                                                                                                                                                                                                                                                                                                                                                                                                                                                              
E|-------------------------|-----------------------|
B|--0--1--------------0--3-|------------5----------|
G|--------2--------4-------|4--------4-----4--7----|
D|-----------3--5----------|---5--6--------------5-|
A|-------------------------|-----------------------|
E|-------------------------|-----------------------|

    
                                                                                                                                                                                                                                                                                                                                                                                                                                                                                                                                                                                                                                                                                                                                                                                                                                                                                                                                                                                                                                                                                                                                                                                              
E|-------------------------|------------------0----|
B|--------0--1-------------|0--1-----------------0-|
G|-----2--------2--------2-|------2--------4-------|
D|-----------------2--3----|---------3--5----------|
A|--0----------------------|-----------------------|
E|-------------------------|-----------------------|

    
                                                                                                                                                                                                                                                                                                                                                                                                                                                                                                                                                                                                                                                                                                                                                                                                                                                                                                                                                                                                                                                                                                                                                                                              
E|-------------------------|-----------------------|
B|--3-----------0--1-------|------0--1-------------|
G|-----4-----2--------2----|---2--------2--------4-|
D|-----------------------2-|3--------------3--5----|
A|--------0----------------|-----------------------|
E|-------------------------|-----------------------|

    
                                                                                                                                                                                                                                                                                                                                                                                                                                                                                                                                                                                                                                                                                                                                                                                                                                                                                                                                                                                                                                                                                                                                                                                              
E|-------------------------|------0----------------|
B|--0--3-------------------|---------1-------------|
G|--------4----------------|------------0----------|
D|-----------5-------------|---2-----------2-----0-|
A|-------------------------|3----------------------|
E|-------------------------|------------------3----|

About Nightmare: The Acoustic M.S.G. : McAuley Schenker Group released only in Japan . It contains acoustic versions of songs from M.S.G. and Save Yourself . It follows the flow of unplugged recordings which were very trendy in those years . It had an affiliation to bands - The Acoustic MSG. Its music is influenced by genres - rock , acoustic rock , instrumental rock.

tabs and chords, guitar tabs, music transcription, music technology, deep learning, music information retrieval, transcribe into tabs & chords, chordify, music renditions, songsterr, reverbnation, tabulature, bollywood chords, ultimate guitar, yousician, guitar lessons, acoustic guitar, electric guitar, guitar tuner, 911 tabs