Guitar Tabs for Wet Hands

(/) Slide Up  (\) Slide Down  (h) Hammer On  (p) Pull Off  (b) Bend (r) Release (v) Vibrato (x) Muted

Tabs for Song : 
BPM : 37

Song lyrics here 
E|-----------------------------------0-----------------------------------------0-----------------------------------------0--------
B|-----------0--2--0--------------2-----2--------------0--2--0--------------2-----2--------------0--2--0--------------2-----2-----
G|--------2-----------2--------------------2--------2-----------2--------------------2--------2-----------2--------------------2--
D|-----2-----------------2--0--4-----------------2-----------------2--0--4-----------------2-----------------2--0--4--------------
A|--0-----------------------------------------0-----------------------------------------0-----------------------------------------
E|--------------------------------------------------------------------------------------------------------------------------------


Use manual mode to free up cursor. Paste any tab in acousterr tab maker and we'll play it !!!

Guitar Tabs for Wet Hands



BPM:37

E|-----------------------------------------------------------------------------------------------------------------
B|-----------------------------------------------------------------------------------------------------------------
G|--------------------------------------------------------------------------------------9-----------------10----7--
D|-----------------------------------------------------------------------------------------------------------------
A|-----------------------------------------------------------------------------------------------------------------
E|-----------------------------------------------------------------------------------------------------------------


E|--
B|--
G|--
D|--
A|--
E|--

tabs and chords, guitar tabs, music transcription, music technology, deep learning, music information retrieval, transcribe into tabs & chords, chordify, music renditions, songsterr, reverbnation, tabulature, bollywood chords, ultimate guitar, yousician, guitar lessons, acoustic guitar, electric guitar, guitar tuner, 911 tabs