Guitar Tabs for West African Music For Fingerstyle Guitar By Fernando Perez. (stefan Grossman Guitar Workshop

(/) Slide Up  (\) Slide Down  (h) Hammer On  (p) Pull Off  (b) Bend (r) Release (v) Vibrato (x) Muted

Tabs & Chords
BPM : 117.0
Check Track 2 for Chord Positions 

                                                                                              
E|-----------------------------------------------------------1--------------------------------
B|-----------------3--------------------------------------------------------------------------
G|--------------------------------------------------------------------------------------------
D|--------1-----------------1-----------------------------------------0--0--0--------1--------
A|--4--4-----4--4-----3--3--------1--1-----3-----0-----------------------------4--------3--2--
E|-----------------------------------------------------4--------2-----------------------------

                                                                      A#                      
E|--------------------------------------------------------------------------------------------
B|--------------------------------------------------------------------------------------------
G|--------------------------------------------------------------------------------------------
D|-----------------------------------0--------------------------------------------------------
A|-----0--1-----2-----1-----4--3-----------2--1-----1-----0--1--1-----1--1-----1--0--------1--
E|--------------------------------------------------------------------------------------4-----

                                        
E|--------------------------------------
B|--------------------------------------
G|--------------------------------------
D|-----0--0--2--2-----------------------
A|--------------------1--2--1-----4--4--
E|--------------------------------------

Guitar Tabs for West African Music For Fingerstyle Guitar By Fernando Perez. (stefan Grossman Guitar Workshop






                                                                                              
E|--------------------------------------------------------------------------------------------
B|--------------------------------------------------------------------------------------------
G|--------------------------------------------------------------------------------------------
D|--------------------------------------------------------------------------------------------
A|--------------------------------------------------------------------------------------------
E|--------------------------------------------------------------------------------------------

                                                                      A#                      
E|--------------------------------------------------------------------1-----------------------
B|--------------------------------------------------------------------3-----------------------
G|--------------------------------------------------------------------3-----------------------
D|--------------------------------------------------------------------3-----------------------
A|--------------------------------------------------------------------1-----------------------
E|--------------------------------------------------------------------------------------------

                                        
E|--------------------------------------
B|--------------------------------------
G|--------------------------------------
D|--------------------------------------
A|--------------------------------------
E|--------------------------------------

tabs and chords, guitar tabs, music transcription, music technology, deep learning, music information retrieval, transcribe into tabs & chords, chordify, music renditions, songsterr, reverbnation, tabulature, bollywood chords, ultimate guitar, yousician, guitar lessons, acoustic guitar, electric guitar, guitar tuner, 911 tabs