Guitar Tabs for Weird Fishes

(/) Slide Up  (\) Slide Down  (h) Hammer On  (p) Pull Off  (b) Bend (r) Release (v) Vibrato (x) Muted

Tabs for Song : 

Song lyrics here
E|--0--------0--------0--------0--------0--------0--------0--------0--------0--------0--------0--------0--------0--------0--------0--------0--------0--------0--------0--------0--------
B|-----8--------8--------8--------8--------8--------8--------8--------8--------8--------8-----------------------------------------------------------------------------------------------
G|--------9--------9--------9--------9--------9--------9--------9--------9--------9--------9-----7--------7--------7--------7--------7--------7--------7--------7--------7--------7-----
D|--------------------------------------------------------------------------------------------------5--------5--------5--------5--------5--------5--------5--------5--------5--------5--
A|--------------------------------------------------------------------------------------------------------------------------------------------------------------------------------------
E|--------------------------------------------------------------------------------------------------------------------------------------------------------------------------------------

Song lyrics here
E|--0--------0--------0--------0--------0--------0--------0--------0--------0--------0--------0--------0--------0--------0--------0--------0--------0--------0--------0--------0--------
B|-----------------------------------------------------------------------------------------------5--------5--------5--------5--------5--------5--------5--------5--------5--------5-----
G|-----9--------9--------9--------9--------9--------9--------9--------9--------9--------9-----------6--------6--------6--------6--------6--------6--------6--------6--------6--------6--
D|--------7--------7--------7--------7--------7--------7--------7--------7--------7--------7--------------------------------------------------------------------------------------------
A|--------------------------------------------------------------------------------------------------------------------------------------------------------------------------------------
E|--------------------------------------------------------------------------------------------------------------------------------------------------------------------------------------

Paste any tab in acousterr's tab maker and we'll play it !!!
Now supports capo and sound effects for vibrato/pull-off/hammer/bends/mutes etc !!! Checkout help section
tabs and chords, guitar tabs, music transcription, music technology, deep learning, music information retrieval, transcribe into tabs & chords, chordify, music renditions, songsterr, reverbnation, tabulature, bollywood chords, ultimate guitar, yousician, guitar lessons, acoustic guitar, electric guitar, guitar tuner, 911 tabs