Guitar Tabs for Weezer - Tired Of Sex

Weezer - Tired Of Sex

Tuning - Half Step Down (Eb - Ab - Db - Gb - Bb - Eb)

Intro
E|-----------------------------------------------------------------
B|--12-------------10-9--10-12----12-------------10-12-13-12-10----
G|-----11-12-11----------------12----11-12-11-------------------12v
D|--------------12----------------------------12-------------------
A|-----------------------------------------------------------------
E|-----------------------------------------------------------------

1st Verse (Bass)

I'm tired

So tired

I'm tired of having sex (so tired)

I'm spread

So thin

I don't know who I am (who I am)

Monday night I'm making Jen

Tuesday night I'm making Lyn

Wednesday night I'm making Catherine

Oh, why can't I be making love come true?

Pos-Verse

(G5) (D5) (D5) (E5) (D5) (C5) (B5)
Whoa

(G5) (D5) (D5) (E5) (D5) (C5) (B5)
 I'm beat
 
(G5) (D5) (D5) (E5) (D5) (C5) (B5) 
Beet red

(G5) (D5) (D5) (E5) (D5) (C5) (B5)  (G5) (D5) (D5) (E5) (D5) (C5) (B5)
   Ashamed of    what I said       (what I said)
   
(G5) (D5) (D5) (E5) (D5) (C5) (B5)
I'm sorry

(G5) (D5) (D5) (E5) (D5) (C5) (B5)
Here I go

   (G5)     (D5) (D5) (E5) (D5) (C5) (B5)   (G5) (D5) (D5) (E5) (D5) (C5) (B5)
I know that I'll resent it but I can't say no (say no)

Chorus

(G5)      (C5)     (D5)   (E5) 
Thursday night I'm making Denise

(G5)   (C5)      (D5)    (E5) 
Friday night I'm making Sharise

(G5)     (C5)      (D5)    (E5) 
Saturday night I'm making Louise

  (F5)            (C5) (B5) (A5) 
So why can't I be making love come true?

Guitar Solo

(G5) (D5) (D5) (E5) (D5) (C5) (B5) 4x


E|--------------------------------------------------
B|--12-10h12-10h12----10h12-10h12----10h12-10h12----
G|--------------------------------------------------
D|--------------------------------------------------
A|--------------------------------------------------
E|--------------------------------------------------

E|--------------------------------------------------------
B|--15-17-15-12-15-12-------12-------12-------------------
G|--------------------15-12----14-12----14-12-14h16-16-16-
D|--------------------------------------------------------
A|--------------------------------------------------------
E|--------------------------------------------------------

E|-----------------------------------------------------------------22b24----
B|--------------------------------------------------------------------------
G|--12-12-12-14----14-14-14-16-------16-16-16-17-17-17-19-19-19-------------
D|--------------------------------------------------------------------------
A|--------------------------------------------------------------------------
E|--------------------------------------------------------------------------

E|--x--x--x--x--x---x----22b24---22-19-----------------
B|-------------------------------------22-20-22-22b24--
G|-----------------------------------------------------
D|-----------------------------------------------------
A|-----------------------------------------------------
E|-----------------------------------------------------

Last Chorus

(G5) (C5)   (D5)       (E5)
Tonight I'm down on my knees

(G5) (C5)   (D5)       (E5)
Tonight I'm begging you please

(G5)  (C5)  (D5) (E5)
Tonight tonight please

   (F5)          (C5) (B5) (A5) 
So why can't I be making love come true?

Outro
(G5) (D5) (D5) (E5) (D5) (C5) (B5) 4x
----------------------------------------------------------------------------------------------------
Chords

    G5    D5    E5    C5
E|-----------------------
B|-----------------------
G|--------7-----9-----5--
D|--5-----7-----9-----5--
A|--5-----5-----7-----3--
E|--3--------------------

    B5    A5    F5
E|-----------------
B|-----------------
G|--------------10-
D|--9-----7-----10-
A|--9-----7-----8--
E|--7-----5--------
tabs and chords, guitar tabs, music transcription, music technology, deep learning, music information retrieval, transcribe into tabs & chords, chordify, music renditions, songsterr, reverbnation, tabulature, bollywood chords, ultimate guitar, yousician, guitar lessons, acoustic guitar, electric guitar, guitar tuner, 911 tabs