Guitar Tabs for We Will Rock You

(/) Slide Up  (\) Slide Down  (h) Hammer On  (p) Pull Off  (b) Bend (r) Release (v) Vibrato (x) Muted

Tabs for Song : 

Song lyrics here
E|-----------------------------------------x--x--x-----------------------------------------------------
B|--------------------------------------2--x--x--x-----2--------------14----14p15-------15-14-------14-
G|--9v----5-----5--5-----2--2-----2-----2--x--x--x-----2-----2------2/14----14p---------14-14-------14-
D|--------5-----5--5-----2--2-----2-----2--x--x--x-----2-----2------2/14----14p16-------16-14-------14-
A|--------3-----3--3-----0--0-----0-----0--x--x--x--0--0-----0------0/0------0p------0-----------0-----
E|--------3-----3--3-----------------3-----x--x--x--------------3--------------------------------------

E|--------------------------------------17-15-14-------------------------------------------------------------
B|--14p15-15p14-15p14-15p14----14v---14-------------17----15----14----15-------17-17-14-17b14----------14----
G|--14p---14p---14p---14p------14v---------------14----14----14----14-14-------14-14----------16b16-14-14----
D|--14p16-16p14-16p14-16p14----14v---------------------------------------16-14-------------------------14----
A|---0p----0p----0p------------------------------------------------------------------------------------0-----
E|-----------------------------------------------------------------------------------------------------------

E|-----------------------x--------------------------------x-----------------------------------x--------------
B|--15p14-15p14-14-14----x--14-15p14-15p14----------15-14-x-----14-15p14-15p14----14----15-14-x-----14-15p14-
G|--14p---14p---14-14----x--14-14p---14p------14----14-14-x-----14-14p---14p------14----14-14-x-----14-14p---
D|--16p14-16p14-14-14----x--14-16p14-16p14----14----16-14-x-----14-16p14-16p14----14----16-14-x-----14-16p14-
A|---0p---------0--------x--0-----------------------0--0--x-----0--------------0--0-----0--0--x-----0---0p---
E|-----------------------x-----------------0--------------x-----------------------------------x--------------

E|-----------------------
B|--15p14----14----15-14v
G|--14p------14----14-14v
D|--16p14----14----16-14v
A|---0p---0--0-----0--0v-
E|-----------------------



Song lyrics here
E|--
B|--
G|--
D|--
A|--
E|--

Paste any tab in acousterr's tab maker and we'll play it !!!
Now supports capo and sound effects for vibrato/pull-off/hammer/bends/mutes etc !!! Checkout help section
tabs and chords, guitar tabs, music transcription, music technology, deep learning, music information retrieval, transcribe into tabs & chords, chordify, music renditions, songsterr, reverbnation, tabulature, bollywood chords, ultimate guitar, yousician, guitar lessons, acoustic guitar, electric guitar, guitar tuner, 911 tabs