We Got The Party With Us - Jonas Brothers - Guitar Tabs

Kevin Jonas
    
                                                                                                                                                                                                                                                                                                                                                                                                                                                                                                                                                                                                                                                                                                                                                                                                                                                                                                                                                                                                                                                                                                                                                                                              
E|-------------------------|-----------------------|
B|-------------------------|-----------------------|
G|-------------------------|-----------------------|
D|--x-----x-----x-----x----|------9--------9-----9-|
A|--x-----x-----x-----x----|------9--------9-----9-|
E|--x-----x-----x-----x----|7--7--7--7--7--7--7--7-|

    
                                                                                                                                                                                                                                                                                                                                                                                                                                                                                                                                                                                                                                                                                                                                                                                                                                                                                                                                                                                                                                                                                                                                                                                              
E|-------------------------|-----------------------|
B|-------------------------|-----------------------|
G|--------------------9----|-----------------------|
D|--------9-----------9--9-|------9--------9-----9-|
A|--------9-----------7--9-|------9--------9-----9-|
E|--7--7--7--7--7--7-----7-|7--7--7--7--7--7--7--7-|

    
                                                                                                                                                                                                                                                                                                                                                                                                                                                                                                                                                                                                                                                                                                                                                                                                                                                                                                                                                                                                                                                                                                                                                                                              
E|-------------------------|-----------------------|
B|-------------------------|-----------------------|
G|--------------9--9--9--9-|-----------------------|
D|--------9-----9--9--9--9-|------7--------7-----7-|
A|--------9-----7--7--7--7-|------7--------7-----7-|
E|--7--7--7--7-------------|5--5--5--5--5--5--5--5-|

    
                                                                                                                                                                                                                                                                                                                                                                                                                                                                                                                                                                                                                                                                                                                                                                                                                                                                                                                                                                                                                                                                                                                                                                                              
E|-------------------------|-----------------------|
B|-------------------------|-----------------------|
G|-------------------------|-----------------------|
D|--------7--------7--7--7-|------9--------9-----9-|
A|--------7--------7--7--7-|------9--------9-----9-|
E|--5--5--5--5--5--5--5--5-|7--7--7--7--7--7--7--7-|

    
                                                                                                                                                                                                                                                                                                                                                                                                                                                                                                                                                                                                                                                                                                                                                                                                                                                                                                                                                                                                                                                                                                                                                                                              
E|-------------------------|-----------------------|
B|-------------------------|-----------------------|
G|--------------------9----|-----------------------|
D|--------9-----------9--9-|------9--------9-----9-|
A|--------9-----------7--9-|------9--------9-----9-|
E|--7--7--7--7--7--7-----7-|7--7--7--7--7--7--7--7-|

    
                                                                                                                                                                                                                                                                                                                                                                                                                                                                                                                                                                                                                                                                                                                                                                                                                                                                                                                                                                                                                                                                                                                                                                                              
E|-------------------------|-----------------------|
B|-------------------------|-----------------------|
G|--------------9--9--9--9-|-----------------------|
D|--------9-----9--9--9--9-|------7--------7-----7-|
A|--------9-----7--7--7--7-|------7--------7-----7-|
E|--7--7--7--7-------------|5--5--5--5--5--5--5--5-|

    
                                                                                                                                                                                                                                                                                                                                                                                                                                                                                                                                                                                                                                                                                                                                                                                                                                                                                                                                                                                                                                                                                                                                                                                              
E|-------------------------|-----------------------|
B|-------------------------|-----------------------|
G|-------------------------|-----------------------|
D|--------7--------7--7--7-|5--5--5--5--5--5--5--5-|
A|--------7--------7--7--7-|5--5--5--5--5--5--5--5-|
E|--5--5--5--5--5--5--5--5-|3--3--3--3--3--3--3--3-|

    
                                                                                                                                                                                                                                                                                                                                                                                                                                                                                                                                                                                                                                                                                                                                                                                                                                                                                                                                                                                                                                                                                                                                                                                              
E|-------------------------|-----------------------|
B|-------------------------|-----------------------|
G|-------------------------|-----------------------|
D|--7--7--7--7--7--7--7--7-|5--5--5--5--5--5--5--5-|
A|--7--7--7--7--7--7--7--7-|5--5--5--5--5--5--5--5-|
E|--5--5--5--5--5--5--5--5-|3--3--3--3--3--3--3--3-|

    
                                                                                                                                                                                                                                                                                                                                                                                                                                                                                                                                                                                                                                                                                                                                                                                                                                                                                                                                                                                                                                                                                                                                                                                              
E|-------------------------|-----------------------|
B|-------------------------|-----------------------|
G|-------------------------|-----------------------|
D|--7--7--7--7--7--7--7--7-|5--5--5--5--5--5--5--5-|
A|--7--7--7--7--7--7--7--7-|5--5--5--5--5--5--5--5-|
E|--5--5--5--5--5--5--5--5-|3--3--3--3--3--3--3--3-|

    
                                                                                                                                                                                                                                                                                                                                                                                                                                                                                                                                                                                                                                                                                                                                                                                                                                                                                                                                                                                                                                                                                                                                                                                              
E|-------------------------|-----------------------|
B|-------------------------|-----------------------|
G|-------------------------|-----------------------|
D|--7--7--7--7--7--7--7--7-|9--9--9--9--9--9--9--9-|
A|--7--7--7--7--7--7--7--7-|9--9--9--9--9--9--9--9-|
E|--5--5--5--5--5--5--5--5-|7--7--7--7--7--7--7--7-|

    
                                                                                                                                                                                                                                                                                                                                                                                                                                                                                                                                                                                                 
E|-------------------------|
B|-------------------------|
G|-------------------------|
D|--7----------------------|
A|--7----------------------|
E|--5----------------------|

    
                                                                                                                                                                                                                                                                                                                                                                                                                                                                                                                                                                                                                                                                                                                                                                                                                                                                                                                                                                                                                                                                                                                                                                                              
E|-------------------------|-----------------------|
B|-------------------------|-----------------------|
G|-------------------------|-----------------------|
D|-----9-----9-----9-----9-|---7-----7-----7-----7-|
A|-----9-----9-----9-----9-|---7-----7-----7-----7-|
E|-----7-----7-----7-----7-|---5-----5-----5-----5-|

    
                                                                                                                                                                                                                                                                                                                                                                                                                                                                                                                                                                                                                                                                                                                                                                                                                                                                                                                                                                                                                                                                                                                                                                                              
E|-------------------------|-----------------------|
B|-------------------------|-----------------------|
G|-------------------------|-----------------------|
D|-----6-----6-----6-----6-|---7-----7-----7-----7-|
A|-----6-----6-----6-----6-|---7-----7-----7-----7-|
E|-----4-----4-----4-----4-|---5-----5-----5-----5-|

    
                                                                                                                                                                                                                                                                                                                                                                                                                                                                                                                                                                                                                                                                                                                                                                                                                                                                                                                                                                                                                                                                                                                                                                                              
E|-------------------------|-----------------------|
B|-------------------------|-----------------------|
G|-------------------------|-----------------------|
D|-----9-----9-----9-----9-|---7-----7-----7-----7-|
A|-----9-----9-----9-----9-|---7-----7-----7-----7-|
E|-----7-----7-----7-----7-|---5-----5-----5-----5-|

    
                                                                                                                                                                                                                                                                                                                                                                                                                                                                                                                                                                                                                                                                                                                                                                                                                                                                                                                                                                                                                                                                                                                                                                                              
E|-------------------------|-----------------------|
B|-------------------------|-----------------------|
G|-------------------------|-----------------------|
D|-----6-----6-----6-----6-|---7-----7-----7-----7-|
A|-----6-----6-----6-----6-|---7-----7-----7-----7-|
E|-----4-----4-----4-----4-|---5-----5-----5-----5-|

    
                                                                                                                                                                                                                                                                                                                                                                                                                                                                                                                                                                                                                                                                                                                                                                                                                                                                                                                                                                                                                                                                                                                                                                                              
E|-------------------------|-----------------------|
B|-------------------------|-----------------------|
G|-------------------------|-----------------------|
D|-----9-----9-----9-----9-|---7-----7-----7-----7-|
A|-----9-----9-----9-----9-|---7-----7-----7-----7-|
E|-----7-----7-----7-----7-|---5-----5-----5-----5-|

    
                                                                                                                                                                                                                                                                                                                                                                                                                                                                                                                                                                                                                                                                                                                                                                                                                                                                                                                                                                                                                                                                                                                                                                                              
E|-------------------------|-----------------------|
B|-------------------------|-----------------------|
G|-------------------------|-----------------------|
D|-----6-----6-----6-----6-|---7-----7-----7-----7-|
A|-----6-----6-----6-----6-|---7-----7-----7-----7-|
E|-----4-----4-----4-----4-|---5-----5-----5-----5-|

    
                                                                                                                                                                                                                                                                                                                                                                                                                                                                                                                                                                                                                                                                                                                                                                                                                                                                                                                                                                                                                                                                                                                                                                                              
E|-------------------------|-----------------------|
B|-------------------------|-----------------------|
G|-------------------------|-----------------------|
D|-----9-----9-----9-----9-|---7-----7-----7-----7-|
A|-----9-----9-----9-----9-|---7-----7-----7-----7-|
E|-----7-----7-----7-----7-|---5-----5-----5-----5-|

    
                                                                                                                                                                                                                                                                                                                                                                                                                                                                                                                                                                                                                                                                                                                                                                                                                                                                                                                                                                                                                                                                                                                                                                                              
E|-------------------------|-----------------------|
B|-------------------------|-----------------------|
G|-------------------------|-----------------------|
D|-----6-----6-----6-----6-|---7-----7-----7-----7-|
A|-----6-----6-----6-----6-|---7-----7-----7-----7-|
E|-----4-----4-----4-----4-|---5-----5-----5-----5-|

    
                                                                                                                                                                                                                                                                                                                                                                                                                                                                                                                                                                                                                                                                                                                                                                                                                                                                                                                                                                                                                                                                                                                                                                                              
E|-------------------------|-----------------------|
B|-------------------------|-----------------------|
G|-------------------------|-----------------------|
D|-----9-----9-----9-----9-|---7-----7-----7-----7-|
A|-----9-----9-----9-----9-|---7-----7-----7-----7-|
E|-----7-----7-----7-----7-|---5-----5-----5-----5-|

    
                                                                                                                                                                                                                                                                                                                                                                                                                                                                                                                                                                                                                                                                                                                                                                                                                                                                                                                                                                                                                                                                                                                                                                                              
E|-------------------------|-----------------------|
B|-------------------------|-----------------------|
G|-------------------------|-----------------------|
D|-----6-----6-----6-----6-|---7-----7-----7-----7-|
A|-----6-----6-----6-----6-|---7-----7-----7-----7-|
E|-----4-----4-----4-----4-|---5-----5-----5-----5-|

    
                                                                                                                                                                                                                                                                                                                                                                                                                                                                                                                                                                                                                                                                                                                                                                                                                                                                                                                                                                                                                                                                                                                                                                                              
E|-------------------------|-----------------------|
B|-------------------------|-----------------------|
G|-------------------------|-----------------------|
D|--5--5--5--5--5--5--5--5-|7--7--7--7--7--7--7--7-|
A|--5--5--5--5--5--5--5--5-|7--7--7--7--7--7--7--7-|
E|--3--3--3--3--3--3--3--3-|5--5--5--5--5--5--5--5-|

    
                                                                                                                                                                                                                                                                                                                                                                                                                                                                                                                                                                                                                                                                                                                                                                                                                                                                                                                                                                                                                                                                                                                                                                                              
E|-------------------------|-----------------------|
B|-------------------------|-----------------------|
G|-------------------------|------------------9----|
D|--------9--------9-----9-|------9-----------9--9-|
A|--------9--------9-----9-|------9-----------7--9-|
E|--7--7--7--7--7--7--7--7-|7--7--7--7--7--7-----7-|

    
                                                                                                                                                                                                                                                                                                                                                                                                                                                                                                                                                                                                                                                                                                                                                                                                                                                                                                                                                                                                                                                                                                                                                                                              
E|-------------------------|-----------------------|
B|-------------------------|-----------------------|
G|-------------------------|------------9--9--9--9-|
D|--------9--------9-----9-|------9-----9--9--9--9-|
A|--------9--------9-----9-|------9-----7--7--7--7-|
E|--7--7--7--7--7--7--7--7-|7--7--7--7-------------|

    
                                                                                                                                                                                                                                                                                                                                                                                                                                                                                                                                                                                                                                                                                                                                                                                                                                                                                                                                                                                                                                                                                                                                                                                              
E|-------------------------|-----------------------|
B|-------------------------|-----------------------|
G|-------------------------|-----------------------|
D|--------7--------7-----7-|------7--------7--7--7-|
A|--------7--------7-----7-|------7--------7--7--7-|
E|--5--5--5--5--5--5--5--5-|5--5--5--5--5--5--5--5-|

    
                                                                                                                                                                                                                                                                                                                                                                                                                                                                                                                                                                                                                                                                                                                                                                                                                                                                                                                                                                                                                                                                                                                                                                                              
E|-------------------------|-----------------------|
B|-------------------------|-----------------------|
G|-------------------------|------------------9----|
D|--------9--------9-----9-|------9-----------9--9-|
A|--------9--------9-----9-|------9-----------7--9-|
E|--7--7--7--7--7--7--7--7-|7--7--7--7--7--7-----7-|

    
                                                                                                                                                                                                                                                                                                                                                                                                                                                                                                                                                                                                                                                                                                                                                                                                                                                                                                                                                                                                                                                                                                                                                                                              
E|-------------------------|-----------------------|
B|-------------------------|-----------------------|
G|-------------------------|------------9--9--9--9-|
D|--------9--------9-----9-|------9-----9--9--9--9-|
A|--------9--------9-----9-|------9-----7--7--7--7-|
E|--7--7--7--7--7--7--7--7-|7--7--7--7-------------|

    
                                                                                                                                                                                                                                                                                                                                                                                                                                                                                                                                                                                                                                                                                                                                                                                                                                                                                                                                                                                                                                                                                                                                                                                              
E|-------------------------|-----------------------|
B|-------------------------|-----------------------|
G|-------------------------|-----------------------|
D|--------7--------7-----7-|------7--------7--7--7-|
A|--------7--------7-----7-|------7--------7--7--7-|
E|--5--5--5--5--5--5--5--5-|5--5--5--5--5--5--5--5-|

    
                                                                                                                                                                                                                                                                                                                                                                                                                                                                                                                                                                                                                                                                                                                                                                                                                                                                                                                                                                                                                                                                                                                                                                                              
E|-------------------------|-----------------------|
B|-------------------------|-----------------------|
G|-------------------------|-----------------------|
D|--5--5--5--5--5--5--5--5-|7--7--7--7--7--7--7--7-|
A|--5--5--5--5--5--5--5--5-|7--7--7--7--7--7--7--7-|
E|--3--3--3--3--3--3--3--3-|5--5--5--5--5--5--5--5-|

    
                                                                                                                                                                                                                                                                                                                                                                                                                                                                                                                                                                                                                                                                                                                                                                                                                                                                                                                                                                                                                                                                                                                                                                                              
E|-------------------------|-----------------------|
B|-------------------------|-----------------------|
G|-------------------------|-----------------------|
D|--5--5--5--5--5--5--5--5-|7--7--7--7--7--7--7--7-|
A|--5--5--5--5--5--5--5--5-|7--7--7--7--7--7--7--7-|
E|--3--3--3--3--3--3--3--3-|5--5--5--5--5--5--5--5-|

About Jonas Brothers discography : The Jonas Brothers have released five studio albums, three extended plays, three live albums, 27 singles,six promotional singles, 28 music videos and other album appearances . The band released five albums: It's About Time (2006) Jonas Brothers (2007), Jonas Brothers) In 2019, the band released their first single in nearly five years, "Sucker", which topped the Billboard Hot 100 . After a hiatus during 2011 to pursue solo-projects, the group reconciled in 2012 to record a new album . As of 2012, they have sold over 17 million albums worldwide. It had a contribution from notable artists like Jonas Brothers,Trying Times. It had an affiliation to bands - The Jonas Brothers,Happiness Begins.

tabs and chords, guitar tabs, music transcription, music technology, deep learning, music information retrieval, transcribe into tabs & chords, chordify, music renditions, songsterr, reverbnation, tabulature, bollywood chords, ultimate guitar, yousician, guitar lessons, acoustic guitar, electric guitar, guitar tuner, 911 tabs