Guitar Tabs for We Found Us

(/) Slide Up  (\) Slide Down  (h) Hammer On  (p) Pull Off  (b) Bend (r) Release (v) Vibrato (x) Muted

Tabs for Song : 
BPM : 270


Song lyrics here 
E|--------------------------------------------------------------------------------------------------
B|--------------------------------------------------------------------------------------------------
G|--5--5--5--5--5--5--5--5--5--5--5--5--5--5--5--5--------------------------------------------------
D|--------------------------------------------------6--6--6--6--6--6--6--6--6--6--6--6--6--6--6--6--
A|--------------------------------------------------------------------------------------------------
E|--------------------------------------------------------------------------------------------------



Song lyrics here 
E|--------------------------------------------------------------------------------------------------
B|--------------------------------------------------------------------------------------------------
G|--------------------------------------------------------------------------------------------------
D|--8--8--8--8--8--8--8--8--8--8--8--8--8--8--8--8--5--5--5--5--5--5--5--5--5--5--5--5--5--5--5--5--
A|--------------------------------------------------------------------------------------------------
E|--------------------------------------------------------------------------------------------------

Use manual mode to free up cursor. Paste any tab in acousterr tab maker and we'll play it !!!

E|--------------------------------------
B|--------------------------------------
G|--8--5--8--5-----5--3-----3-----------
D|--------------6--------5-----5--3--5--
A|--------------------------------------
E|--------------------------------------

E|--------------------------------------------------------------------------------------------------------------
B|--------------------------------------------------------------------------------------------------------------
G|--8--8--8--8--8--8--8--7--7-----------8--8--8--8--8--8--8--7--7-----------8--8--8--8--10-10-10-7--7-----------
D|-----------------------------8--8--8-----------------------------8--8--8-----------------------------8--8--8--
A|--------------------------------------------------------------------------------------------------------------
E|--------------------------------------------------------------------------------------------------------------

E|--------------------------------
B|--------------------------------
G|--------------------------------
D|--5--5--5--5--5--6--6--6--6--6--
A|--------------------------------
E|--------------------------------
tabs and chords, guitar tabs, music transcription, music technology, deep learning, music information retrieval, transcribe into tabs & chords, chordify, music renditions, songsterr, reverbnation, tabulature, bollywood chords, ultimate guitar, yousician, guitar lessons, acoustic guitar, electric guitar, guitar tuner, 911 tabs