Bass Tabs for Way It Goes (g#)

(/) Slide Up  (\) Slide Down  (h) Hammer On  (p) Pull Off  (b) Bend (r) Release (v) Vibrato (x) Muted

Tabs for Song : 
BPM : 200

Song lyrics here
G|-----------------------------------------------------------------------------------=---------------------------------------------------------------------
D|--------------------------------------------------------------------------6-----------------------------------------------------------------------------
A|--------------------------------------6--8--6-----6--6-----6--6-----6--8-----8--6--4-----4--4-----4--4-----4--6--8--6--3--------------------------------
E|--4--4-----4--4-----4--4-----4--6--8--------------------------------------------------------------------------------------4-----4--4-----4--4-----4--4--

Song lyrics here
G|--------------------------------------------------------------------------------------------------------------------------------------
D|-----------------------------------------5--5-----------------------------------------------------------------------------------------
A|--4-----4--4-----4--4-----4--4--------------------------------------4-----4--4-----4--4-----4--4--------------------------------------
E|-----------------------------------4--------------4--4-----4--4-----------------------------------------4-----4--4-----4--4-----4--4--

Paste any tab in acousterr's tab maker and we'll play it !!!
Now supports capo and sound effects for vibrato/pull-off/hammer/bends/mutes etc !!! Checkout help section
tabs and chords, guitar tabs, music transcription, music technology, deep learning, music information retrieval, transcribe into tabs & chords, chordify, music renditions, songsterr, reverbnation, tabulature, bollywood chords, ultimate guitar, yousician, guitar lessons, acoustic guitar, electric guitar, guitar tuner, 911 tabs