Guitar Tabs for Waves Of Misery

(/) Slide Up  (\) Slide Down  (h) Hammer On  (p) Pull Off  (b) Bend (r) Release (v) Vibrato (x) Muted

Tabs for Song : 
BPM : 200

Song lyrics here 
E|--3-----------------3--------------------3-----------------3--
B|--3-----------------3--------------------3-----------------3--
G|--0--------------------------------------0--------------------
D|--0--------------------------------------0--------------------
A|--------------------2--------------------------------------2--
E|--------------------3--------------------------------------3--

E|--3-----------------3--------------------3-----------------3--
B|--3-----------------3--------------------3-----------------3--
G|--0--------------------------------------0--------------------
D|--0--------------------------------------0--------------------
A|--------------------2--------------------------------------2--
E|--------------------3--------------------------------------3--

E|--3-----------------3--------------------3-----------------3--
B|--3-----------------3--------------------3-----------------3--
G|--0--------------------------------------0--------------------
D|--0--------------------------------------0--------------------
A|--------------------2--------------------------------------2--
E|--------------------3--------------------------------------3--

E|--3-----------------3--------------------3-----------------3--
B|--3-----------------3--------------------3-----------------3--
G|--0--------------------------------------0--------------------
D|--0--------------------------------------0--------------------
A|--------------------2--------------------------------------2--
E|--------------------3--------------------------------------3--

E|--3-----------------3--------------------3-----------------3--
B|--3-----------------3--------------------3-----------------3--
G|--0--------------------------------------0--------------------
D|--0--------------------------------------0--------------------
A|--------------------2--------------------------------------2--
E|--------------------3--------------------------------------3--

E|--3-----------------3--------------------3-----------------3--
B|--3-----------------3--------------------3-----------------3--
G|--0--------------------------------------0--------------------
D|--0--------------------------------------0--------------------
A|--------------------2--------------------------------------2--
E|--------------------3--------------------------------------3--

E|--3-----------------3--------------------3-----------------3--
B|--3-----------------3--------------------3-----------------3--
G|--0--------------------------------------0--------------------
D|--0--------------------------------------0--------------------
A|--------------------2--------------------------------------2--
E|--------------------3--------------------------------------3--

E|--3-----------------3--------------------3-----------------3--
B|--3-----------------3--------------------3-----------------3--
G|--0--------------------------------------0--------------------
D|--0--------------------------------------0--------------------
A|--------------------2--------------------------------------2--
E|--------------------3--------------------------------------3--

E|--3-----------------3--------------------3-----------------3--
B|--3-----------------3--------------------3-----------------3--
G|--0--------------------------------------0--------------------
D|--0--------------------------------------0--------------------
A|--------------------2--------------------------------------2--
E|--------------------3--------------------------------------3--

E|--3-----------------3--------------------3-----------------3--
B|--3-----------------3--------------------3-----------------3--
G|--0--------------------------------------0--------------------
D|--0--------------------------------------0--------------------
A|--------------------2--------------------------------------2--
E|--------------------3--------------------------------------3--

E|--3-----------------3--------------------3-----------------3--
B|--3-----------------3--------------------3-----------------3--
G|--0--------------------------------------0--------------------
D|--0--------------------------------------0--------------------
A|--------------------2--------------------------------------2--
E|--------------------3--------------------------------------3--

E|--3-----------------3--------------------3-----------------3--
B|--3-----------------3--------------------3-----------------3--
G|--0--------------------------------------0--------------------
D|--0--------------------------------------0--------------------
A|--------------------2--------------------------------------2--
E|--------------------3--------------------------------------3--


E|--3-----------------3--------------------3-----------------3--
B|--3-----------------3--------------------3-----------------3--
G|--0--------------------------------------0--------------------
D|--0--------------------------------------0--------------------
A|--------------------2--------------------------------------2--
E|--------------------3--------------------------------------3--

E|--3-----------------3--------------------3-----------------3--
B|--3-----------------3--------------------3-----------------3--
G|--0--------------------------------------0--------------------
D|--0--------------------------------------0--------------------
A|--------------------2--------------------------------------2--
E|--------------------3--------------------------------------3--

E|--3-----------------3--------------------3-----------------3--
B|--3-----------------3--------------------3-----------------3--
G|--0--------------------------------------0--------------------
D|--0--------------------------------------0--------------------
A|--------------------2--------------------------------------2--
E|--------------------3--------------------------------------3--

E|--3-----------------3--------------------3-----------------3--
B|--3-----------------3--------------------3-----------------3--
G|--0--------------------------------------0--------------------
D|--0--------------------------------------0--------------------
A|--------------------2--------------------------------------2--
E|--------------------3--------------------------------------3--

E|--3-----------------3--------------------3-----------------3--
B|--3-----------------3--------------------3-----------------3--
G|--0--------------------------------------0--------------------
D|--0--------------------------------------0--------------------
A|--------------------2--------------------------------------2--
E|--------------------3--------------------------------------3--
Song lyrics here 
E|-----------------------------------------------------------------------------------------------------------------------------------------
B|-----------------------------------------------------------------------------------------------------------------------------------------
G|-----------------------------------------------------------------------------------------------------------------------------------------
D|-----------------------------------------------------------------------------------------------------------------------------------------
A|-----------------------------------------------------------------------------------------------------------------------------------------
E|-----------------------------------------------------------------------------------------------------------------------------------------

Use manual mode to free up cursor. Paste any tab in acousterr tab maker and we'll play it !!!

Guitar Tabs for Waves Of Misery






E|--15-12----------------12-15-15-12----------------12-15-15-12----------------12-15-
B|--------14-13----13-14-------------14-13----13-14-------------14-13----13-14-------
G|--------------13-------------------------13-------------------------13-------------
D|-----------------------------------------------------------------------------------
A|-----------------------------------------------------------------------------------
E|-----------------------------------------------------------------------------------

E|--
B|--
G|--
D|--
A|--
E|--

E|--19-16----------------16-19-19-16----------------16-19-19-16----------------16-19-
B|--------18-17----17-18-------------18-17----17-18-------------18-17----17-18-------
G|--------------17-------------------------17-------------------------17-------------
D|-----------------------------------------------------------------------------------
A|-----------------------------------------------------------------------------------
E|-----------------------------------------------------------------------------------

E|--
B|--
G|--
D|--
A|--
E|--

E|--22-19----------------19-22-22-19----------------19-22-22-19----------------19-22-
B|--------21-20----20-21-------------21-20----20-21-------------21-20----20-21-------
G|--------------20-------------------------20-------------------------20-------------
D|-----------------------------------------------------------------------------------
A|-----------------------------------------------------------------------------------
E|-----------------------------------------------------------------------------------

E|--
B|--
G|--
D|--
A|--
E|--

E|--22----------------19-17-------15-------------13-12-------10-------8--------6-----3-----0--------
B|-----21-20----20-19-------18-17----15-14----14-------12-11----10-9-----7--7-----5-----2-----0-----
G|-----------20----------------------------14-------------------------------------------------------
D|--------------------------------------------------------------------------------------------------
A|--------------------------------------------------------------------------------------------------
E|-----------------------------------------------------------------------------------------------0--

E|-----------------5-----------------------------15----------------------------21----------
B|--------------4-----6-----------------------14----16----------------------20----20-------
G|-----------3-----------7-----------------13----------17----------------21----------19----
D|--------2-----------------8-----------12----------------18----------22-------------------
A|-----1-----------------------9-----11----------------------19----21----------------------
E|--0-----------------------------10----------------------------20----------------------19-

E|-----------------------------------------------------------------14-16-15-12----------------12-15-
B|-----------------------------------------------------------14-16-------------14-13----13-14-------
G|-----------------------------------------------------14-16-------------------------13-------------
D|--------18-19----------------18-19----16-------15-16----------------------------------------------
A|-----18-------18-19----18-19-------17----16-15----------------------------------------------------
E|--19----------------19----------------------------------------------------------------------------

E|--15-12-------------------12----12----12----12----12----12----12----12----12----12-------10-11-12-
B|--------14-13----13-14-12----12----------------------------------------------------11-10----------
G|--------------13-------------------12----12-------------------------------------------------------
D|-----------------------------------------------12----12-------------------------------------------
A|-----------------------------------------------------------12----12-------------------------------
E|-----------------------------------------------------------------------12----12-------------------

E|--12-9-----------------9--12-12-9-----------------9--12-12-9-----------------9--12-
B|--------11-10----10-11-------------11-10----10-11-------------11-10----10-11-------
G|--------------10-------------------------10-------------------------10-------------
D|-----------------------------------------------------------------------------------
A|-----------------------------------------------------------------------------------
E|-----------------------------------------------------------------------------------

E|--12-9-----------------9--12-8--5-----------------5--8--8--5-----------------5--7--
B|--------11-10----10-11-------------7--6-----6--7--------------7--6-----6--7--------
G|--------------10-------------------------6--------------------------6--------------
D|-----------------------------------------------------------------------------------
A|-----------------------------------------------------------------------------------
E|-----------------------------------------------------------------------------------


E|--
B|--
G|--
D|--
A|--
E|--

E|--9--6-----------------6--9--9--6-----------------6--9--9--6-----------------6--9--
B|--------8--7-----7--8--------------8--7-----7--8--------------8--7-----7--8--------
G|--------------7--------------------------7--------------------------7--------------
D|-----------------------------------------------------------------------------------
A|-----------------------------------------------------------------------------------
E|-----------------------------------------------------------------------------------

E|--
B|--
G|--
D|--
A|--
E|--

E|--12-9-----------------9--12-12-9-----------------9--12-12-9-----------------9--12-
B|--------11-10----10-11-------------11-10----10-11-------------11-10----10-11-------
G|--------------10-------------------------10-------------------------10-------------
D|-----------------------------------------------------------------------------------
A|-----------------------------------------------------------------------------------
E|-----------------------------------------------------------------------------------

E|--12-------9--------6--------3--------0-----------------------
B|-----11-10----8--7-----5--4-----2--1-----0--------------------
G|--------------------------------------------0-----------------
D|-----------------------------------------------0--------------
A|--------------------------------------------------0--1--2-----
E|-----------------------------------------------------------3--

E|-----------------------------------------------------------------------------------------------------------------------------------------
B|-----------------------------------------------------------------------------------------------------------------------------------------
G|-----------------------------------------------------------------------------------------------------------------------------------------
D|--------------------------------------------------------------18----------15-14-13-12-11-------9--8--------6--5--------3--2--------------
A|--4--5-----7--8-----10-11----13-14----16-17----19-20----20-19----17-17-16----------------10-10-------7--7--------4--4--------1-----------
E|--------6--------9--------12-------15-------18-------21-------------------------------------------------------------------------1--0--0--
tabs and chords, guitar tabs, music transcription, music technology, deep learning, music information retrieval, transcribe into tabs & chords, chordify, music renditions, songsterr, reverbnation, tabulature, bollywood chords, ultimate guitar, yousician, guitar lessons, acoustic guitar, electric guitar, guitar tuner, 911 tabs