Guitar Tabs for Wave Of Love

(/) Slide Up  (\) Slide Down  (h) Hammer On  (p) Pull Off  (b) Bend (r) Release (v) Vibrato (x) Muted

Tabs for Song : 

Introduction:
E|--------------------------------------------------------------------------------------------------
B|--------5--------5--8-----------------------------------7--------7---8/10-------8--------8--------
G|-----5--------5-----------------4--------4-----------7--------7--------------9--------9-----9-----
D|-----------------------------5--------5-----------------------------------------------------------
A|--3--------3--------7-----------------------------5--------5--------------7--------7-----------5--
E|--------------------------3--------3--------------------------------------------------------------

Verses 1 and 2:
E|--------------------------------------------------------------------------------------------------
B|--------5--------5--8-----------------------------------7--------7---8/10-------8--------8--------
G|-----5--------5-----------------4--------4-----------7--------7--------------9--------9-----9-----
D|-----------------------------5--------5-----------------------------------------------------------
A|--3--------3--------7-----------------------------5--------5--------------7--------7-----------5--
E|--------------------------3--------3--------------------------------------------------------------

E|-----------------------------------------------------------------------------------------
B|--------5--------5--8-----------------------------------7--------7--------------8--7-----
G|-----5--------5-----------------4--------4-----------7--------7--------7-----7--------7--
D|-----------------------------5--------5--------------------------------------------------
A|--3--------3--------7-----------------------------5--------5--------------5--------------
E|--------------------------3--------3-----------------------------------------------------

Song lyrics here
E|--
B|--
G|--
D|--
A|--
E|--

Paste any tab in acousterr's tab maker and we'll play it !!!
Now supports capo and sound effects for vibrato/pull-off/hammer/bends/mutes etc !!! Checkout help section
tabs and chords, guitar tabs, music transcription, music technology, deep learning, music information retrieval, transcribe into tabs & chords, chordify, music renditions, songsterr, reverbnation, tabulature, bollywood chords, ultimate guitar, yousician, guitar lessons, acoustic guitar, electric guitar, guitar tuner, 911 tabs