Bass Tabs for Was

(/) Slide Up  (\) Slide Down  (h) Hammer On  (p) Pull Off  (b) Bend (r) Release (v) Vibrato (x) Muted

Tabs for Song : 
BPM : 200

Song lyrics here 
G|--
D|--
A|--
E|--

Song lyrics here 
G|--
D|--
A|--
E|--

Use manual mode to free up cursor. Paste any tab in acousterr tab maker and we'll play it !!!

Guitar Tabs for Was






          Gm    G#             A#                         D#                               Gm 
E|--------3-----4--------------1--------------------------6--------------------------------3--
B|--------3-----4--------------3--------------------------8--------------------------------3--
G|--------3-----5--------------3--------------------------8--------------------------------3--
D|--------5-----6--------------3--------------------------8--------------------------------5--
A|--------5-----6--------------1--------------------------6--------------------------------5--
E|--------3-----4--------------------------------------------------------------------------3--

       D#    G#    A#                   D#    Gm    D#    G#    A#                   D#       
E|-----6-----4-----1--------------------6-----3-----6-----4-----1--------------------6--------
B|-----8-----4-----3--------------------8-----3-----8-----4-----3--------------------8--------
G|-----8-----5-----3--------------------8-----3-----8-----5-----3--------------------8--------
D|-----8-----6-----3--------------------8-----5-----8-----6-----3--------------------8--------
A|-----6-----6-----1--------------------6-----5-----6-----6-----1--------------------6--------
E|-----------4--------------------------------3-----------4-----------------------------------

                
E|--------------
B|--------------
G|--------------
D|--------------
A|--------------
E|--------------

tabs and chords, guitar tabs, music transcription, music technology, deep learning, music information retrieval, transcribe into tabs & chords, chordify, music renditions, songsterr, reverbnation, tabulature, bollywood chords, ultimate guitar, yousician, guitar lessons, acoustic guitar, electric guitar, guitar tuner, 911 tabs