Bass Tabs for Warm Ups For Bass And Guitar Players

(/) Slide Up  (\) Slide Down  (h) Hammer On  (p) Pull Off  (b) Bend (r) Release (v) Vibrato (x) Muted

Tabs for Song : 
BPM : 300

Song lyrics here
G|--------------------------------------------------------------------------------------------------------------------------------------------------------------------------------------------------------------------------------------------------------------
D|--------------------------------------------------------------------------------------------------------------------------------------------------------------------------------------------------------------------------------------------------------------
A|--------------------------------------------------------------------------------------------------------------3--3--3--3--5--5--5--5--7--7--7--7--------------------------------------------------------------3--3--3--3--5--5--5--5--7--7--7--7--------------
E|--0--0--0--0--3--3--3--3--5--5--5--5--7--7--7--7--0--0--0--0--3--3--3--3--5--5--5--5--7--7--7--7--0--0--0--0--------------------------------------0--0--0--0--3--3--3--3--5--5--5--5--7--7--7--7--0--0--0--0--------------------------------------0--0--0--0--

G|--
D|--
A|--
E|--

Song lyrics here
G|--
D|--
A|--
E|--

Paste any tab in acousterr's tab maker and we'll play it !!!
Now supports capo and sound effects for vibrato/pull-off/hammer/bends/mutes etc !!! Checkout help section

Guitar Tabs for Warm Ups For Bass And Guitar Players






E|--------------------------------------------------------------------------------------------------------------------------------------------------------------------------------------------------------------------------------------------------------------
B|--------------------------------------------------------------------------------------------------------------------------------------------------------------------------------------------------------------------------------------------------------------
G|--------------------------------------------------------------------------------------------------------------------------------------------------------------------------------------------------------------------------------------------------------------
D|--------------------------------------------------------------------------------------------------------------------------------------------------------------------------------------------------------------------------------------------------------------
A|--------------------------------------------------------------------------------------------------------------3--3--3--3--5--5--5--5--7--7--7--7--------------------------------------------------------------3--3--3--3--5--5--5--5--7--7--7--7--------------
E|--0--0--0--0--3--3--3--3--5--5--5--5--7--7--7--7--0--0--0--0--3--3--3--3--5--5--5--5--7--7--7--7--0--0--0--0--------------------------------------0--0--0--0--3--3--3--3--5--5--5--5--7--7--7--7--0--0--0--0--------------------------------------0--0--0--0--

E|--
B|--
G|--
D|--
A|--
E|--





E|--
B|--
G|--
D|--
A|--
E|--

Guitar Tabs for Warm Ups For Bass And Guitar Players






E|--------------------------------------------------------------------------------------------------------------------------------------------------
B|--------------------------------------------------------------------------------------------------------------------------------------------------
G|-----------------3-----------------3-----------------3-----------------3-----------------3-----------------3-----------------3-----------------3--
D|--11-11-11-11-------11-11-11-11-------11-11-11-11-------11-11-11-11-------11-11-11-11-------11-11-11-11-------11-11-11-11-------11-11-11-11-------
A|--------------11----------------11----------------11----------------11----------------11----------------11----------------11----------------11----
E|--------------------------------------------------------------------------------------------------------------------------------------------------

E|--
B|--
G|--
D|--
A|--
E|--





E|--
B|--
G|--
D|--
A|--
E|--

Bass Tabs for Warm Ups For Bass And Guitar Players






G|-----------------3-----------------3-----------------3-----------------3-----------------3-----------------3-----------------3-----------------3--
D|--11-11-11-11-------11-11-11-11-------11-11-11-11-------11-11-11-11-------11-11-11-11-------11-11-11-11-------11-11-11-11-------11-11-11-11-------
A|--------------11----------------11----------------11----------------11----------------11----------------11----------------11----------------11----
E|--------------------------------------------------------------------------------------------------------------------------------------------------

G|--
D|--
A|--
E|--

G|--
D|--
A|--
E|--


G|--
D|--
A|--
E|--

tabs and chords, guitar tabs, music transcription, music technology, deep learning, music information retrieval, transcribe into tabs & chords, chordify, music renditions, songsterr, reverbnation, tabulature, bollywood chords, ultimate guitar, yousician, guitar lessons, acoustic guitar, electric guitar, guitar tuner, 911 tabs