Guitar Tabs for Warm Up Tech

(/) Slide Up  (\) Slide Down  (h) Hammer On  (p) Pull Off  (b) Bend (r) Release (v) Vibrato (x) Muted

Tabs for Song : 
BPM : 200

    Csus2    C        C        Csus4    Asus2    Am       Am       Asus4    Dsus2    Dm       Dm      
E|-----------------------------------------------------------------------------------------------------
B|--------1--------1--------1--------1--------0--------1--------1--------3--------3--------3--------3--
G|-----0--------0--------0--------0--------2--------2--------2--------2--------2--------2--------2-----
D|--0--------2--------2--------3--------2--------2--------2--------2--------2--------3--------3--------
A|-----------------------------------------------------------------------------------------------------
E|-----------------------------------------------------------------------------------------------------
    Dsus4    Gsus2    G        G        Gsus4    Csus2    C        C        Csus4    Asus2    Am
E|-----------------------------------------------------------------------------------------------------
B|--------3--------3--------3--------3--------3--------3--------5--------5--------6--------5--------5--
G|-----2--------2--------4--------4--------5--------5--------5--------5--------5--------4--------5-----
D|--5--------5--------5--------5--------5--------5--------5--------5--------5--------7--------7--------
A|-----------------------------------------------------------------------------------------------------
E|-----------------------------------------------------------------------------------------------------
    Am       Asus4    Dsus2    Dm       Dm       Dsus4    Gsus4    G        G        Gsus4    Csus2
E|-----------------------------------------------------------------------------------------------------
B|--------5--------5--------5--------6--------6--------8--------8--------8--------8--------8--------8--
G|-----5--------7--------7--------7--------7--------7--------7--------7--------7--------7--------7-----
D|--7--------7--------7--------7--------7--------7--------7--------9--------9--------10-------10-------
A|-----------------------------------------------------------------------------------------------------
E|-----------------------------------------------------------------------------------------------------
    C        C        Csus4    Asus2    Am       Am       Asus4    Dsus2    Dm       Dm       Dsus4      
E|-----------------------------------------------------------------------------------------------------
B|--------8--------8--------8--------10-------10-------10-------10-------10-------10-------10-------10-
G|-----9--------9--------10-------9--------9--------9--------9--------9--------10-------10-------12----
D|--10-------10-------10-------9--------10-------10-------12-------12-------12-------12-------12-------
A|-----------------------------------------------------------------------------------------------------
E|-----------------------------------------------------------------------------------------------------
    Gsus2    G        G        Gsus4    C
E|-----------------------------------------------
B|--------10-------12-------12-------13-------13-
G|-----12-------12-------12-------12-------12----
D|--12-------12-------12-------12-------14-------
A|-----------------------------------------------
E|-----------------------------------------------

Song lyrics here 
E|--
B|--
G|--
D|--
A|--
E|--

Use manual mode to free up cursor. Paste any tab in acousterr tab maker and we'll play it !!!
tabs and chords, guitar tabs, music transcription, music technology, deep learning, music information retrieval, transcribe into tabs & chords, chordify, music renditions, songsterr, reverbnation, tabulature, bollywood chords, ultimate guitar, yousician, guitar lessons, acoustic guitar, electric guitar, guitar tuner, 911 tabs