Guitar Tabs for Warden Of The North

(/) Slide Up  (\) Slide Down  (h) Hammer On  (p) Pull Off  (b) Bend (r) Release (v) Vibrato (x) Muted

Tabs for Song : 
BPM : 98

Song lyrics here 


E|-----------------------------------------------------------------------
B|-----------------------------------------------------------------------
G|-----13-------12-------10-------9--8-----------------------------------
D|--14----14-13----12-11----10-9--------8--------------------------------
A|-----------------------------------------8-----7-----6-----------6--6--
D|-----------------------------------------------------------------------

E|--------------------------------------------------
B|--------------------------------------------------
G|--------------------------------------------------
D|-----0--------------------------------------------
A|-----------------------3--3-----3--3--6-----------
D|--0-----0-----0--3--5--------------------3--6--5--

-

E|-----------------------------------------------------------
B|-----------------------------------------------------------
G|-----------------------------------------------------------
D|-----------------------------------------------------------
A|--------------------------------3--3-----3--3--6-----------
D|--0-----0--3--5--0-----0--3--5--------------------3--6--5--

E|--
B|-----
G|-----
D|-----
A|-----
D|-----


--
 
Song lyrics here 
E|---------------------------------------------------------------------
B|-----------------------------------------------------------------------
G|-----------------------------------------------------------------------
D|-----------------------------------------------------------------------
A|-----------------------------------------------------------------------
D|--0-----0--0--0-----0--0--1--0-----0--0--0--0-----0--1--0-----0--0--0--

E|-----------------------------------------------------------------
B|-----------------------------------------------------------------
G|-----------------------------------------------------------------
D|-----------------------------------------------5--3--5--3--------
A|-----------------------------------------------------------6--5--
D|--1--1--1---1/3--3--1--1---0/-1/-2/3--3--3--3--------------------

E|-----------------------------------------------------------------
B|-----------------------------------------------------------------
G|-----------------------------------------------------------------
D|-----------------------------------3-----------------------------
A|-----------------------------------------------------------------
D|--1--1--1-----1---0/-1/-2/3--3--3-----3--1--1--1--1--6--6--5--5--

E|-----------------------------------------------------------------------------------------------------
B|-----------------------------------------------------------------------------------------------------
G|-----------------------------------------------------------------------------------------------------
D|-----0-----------------------------------------------------------------------------------------------
A|-----------------------3--3-----3--3--6--------------------------------------3--3--3--3--6-----------
D|--0-----0-----0--3--5--------------------3--6--5-----0--0--3--5--0--0--3--5-----------------3--6--5--

E|-----------------------------------------------------------------------------------------------------
B|-----------------------------------------------------------------------------------------------------
G|-----------------------------------------------------------------------------------------------------
D|-----0-----------------------------------------------------------------------------------------------
A|-----------------------3--3-----3--3--6--------------------------------------3--3--3--3--6-----------
D|--0-----0-----0--3--5--------3-----------3--6--5-----0--0--3--5--0--0--3--5-----------------3--6--5--

E|-----------------------------------------------------------------------------------------
B|-----------------------------------------------------------------------------------------
G|-----------------------------------------------------------------------------------------
D|-----------------------------------------------------------------------------------------
A|-----------------------------------------------------------------------------------------
D|--1--1--1--1--1-----1--1--1--1--1-----1--1--1--1--1-----1--1--1--1--1--1--1--1--1--1--0--

E|--------------------------------------------
B|--------------------------------------------
G|--------------------------------------------
D|-----0--------------------------------------
A|--------------------------------------------
D|--0-----0--0--3--5--3--------6--------9-----

E|-----------------------------------------------------------------------------------------
B|-----------------------------------------------------------------------------------------
G|--------------11-9--------------------------11-------------7--6--------------------------
D|--------11-9--------11-9-----9--------11-9-----------7--5--------7--5--5--4--------------
A|--------------------------------9--10----------------------------------------4--5--------
D|--9-----------------------------------------------5--------------------------------5---4/

E|-----------------------------------------------------------------------------------------
B|-----------------------------------------------------------------------------------------
G|--------------11-9--------------------------11-------------7--6--------------------------
D|--------11-9--------11-9-----9--------11-9-----------7--5--------7--5--5--4--------------
A|--------------------------------9--10----------------------------------------4--5--------
D|--9-----------------------------------------------5--------------------------------5--4--

E|--------------------------------------------------------------------------------------------
B|--------------------------------------------------------------------------------------------
G|--------------11-9--------------------------11-------------7--6-----------------------------
D|--------11-9--------11-9-----9--------11-9-----------7--5--------7--5--5--4-----------------
A|--------------------------------9--10----------------------------------------4--5-----------
D|--9-----------------------------------------------5--------------------------------5---4\2--



E|-----------------------------------------------------------------------------------------
B|-----------------------------------------------------------------------------------------
G|--------------11-9-----------------------11----------------7--6--------------------------
D|--------11-9--------11-9--9--------11-9--------------7--5--------7--5--5--4--------------
A|-----------------------------9--10-------------------------------------------4--5--------
D|--9-----------------------------------------------5--------------------------------5--4--

E|--------------------------------
B|--------------------------------
G|--------------------------------
D|--------------------------------
A|--------------------------------
D|--2-----2--2------2/5------0\7--

E|-----------------------------------------------------------------------------------------------
B|-----------------------------------------------------------------------------------------------
G|-----------------------------------------------------------------------------------------------
D|-----------------------------------------------------------------------------------------------
A|-----------------------------------------------------------------------------------------------
D|--9--9--9--9--9--9--9--9--9--9--9--9--9--9--9--9--5--5--5--5--5--5--5--5--5--5--5--5--5--5--4--

E|-----------------------------------------------------------------------------------------------
B|-----------------------------------------------------------------------------------------------
G|-----------------------------------------------------------------------------------------------
D|-----------------------------------------------------------------------------------------------
A|-----------------------------------------------------------------------------------------------
D|--9--9--9--9--9--9--9--9--9--9--9--9--9--9--9--9--5--5--5--5--5--5--5--5--5--5--5--5--5--5--4--

E|-----------------------------------------------------------------------------------------------
B|-----------------------------------------------------------------------------------------------
G|-----------------------------------------------------------------------------------------------
D|-----------------------------------------------------------------------------------------------
A|-----------------------------------------------------------------------------------------------
D|--9--9--9--9--9--9--9--9--9--9--9--9--9--9--9--9--5--5--5--5--5--5--5--5--5--5--5--5--5--5--4--

E|-----------------------------------------------------------------------------------------------
B|-----------------------------------------------------------------------------------------------
G|-----------------------------------------------------------------------------------------------
D|-----------------------------------------------------------------------------------------------
A|-----------------------------------------------------------------------------------------------
D|--9--9--9--9--9--9--9--9--9--9--9--9--9--9--9--9--5--5--5--5--5--5--5--5--5--5--5--5--5--5--4--

E|--------------------------------
B|--------------------------------
G|--------------------------------
D|--------------------------------
A|--------------------------------
D|--2-----2--2-----2--2---5/-0\7--

E|--
B|--
G|--
D|--
A|--
D|--

E|-----------------------------------------------------------------------
B|-----------------------------------------------------------------------
G|-----------------------------------------------------------------------
D|-----------------------------------------------------------------------
A|-----------------------------------------------------------------------
D|--------------------0-----0---0\5--------5-----5-----4-----4--2--0-----

E|-----------------------------------------------------------------------
B|-----------------------------------------------------------------------
G|-----------------------------------------------------------------------
D|-----------------------------------------------------------------------
A|-----------------------------------------------------------------------
D|--9------9b10-9-----0-----0---0\5--------5-----5-----4-----4--2--0-----

E|--
B|--
G|--
D|--
A|--
D|--

E|--------------------------------------------------------------------
B|--------------------------------------------------------------------
G|--------------------------------------------------------------------
D|--------------------------------------------------------------------
A|--------------------------------------------------------------------
D|--9------9b10-9-----0-----0------0\5--------5-----4--------4--2--0--

E|--------------------------------------
B|--------------------------------------
G|--------------------------------------
D|--------------------------------------
A|--------------------------------------
D|--3--------------1-----------------2--

E|-----------------------------------------------------------------------
B|-----------------------------------------------------------------------
G|-----------------------------------------------------------------------
D|-----------------------------------------------------------------------
A|-----------------------------------------------------------------------
D|--3--------------1-----------------2--------------------------------0--

-

Use manual mode to free up cursor. Paste any tab in acousterr tab maker and we'll play it !!!
tabs and chords, guitar tabs, music transcription, music technology, deep learning, music information retrieval, transcribe into tabs & chords, chordify, music renditions, songsterr, reverbnation, tabulature, bollywood chords, ultimate guitar, yousician, guitar lessons, acoustic guitar, electric guitar, guitar tuner, 911 tabs