Guitar Tabs for Wannabe One Guitar Part

BPM = 90
Introduction
E|-----------------------------------------------------------------------------
B|-----------10-------------------10-------------------10----------------------
G|--------10----10-------------10----10-------------10----10-------------------
D|-----10----------10-------10----------10-------10----------10----------------
A|-----------------------------------------------------------------10----10----
E|--10----------------10-10----------------10-10----------------10----10----10-

E|-----------
B|-----------
G|--------10-
D|-----10----
A|--10-------
E|-----------
Intro Solo
E|--------------------------------------------------------------------
B|--10-13-12-11-10-13-12-11-10-15-14-13-12-11-10-12-11-10-12-12-11-11-
G|--------------------------------------------------------------------
D|--------------------------------------------------------------------
A|--------------------------------------------------------------------
E|--------------------------------------------------------------------

E|--------------------
B|--10-10-12-11-10-22-
G|--------------------
D|--------------------
A|--------------------
E|--------------------
Fade Out
E|-----------------------------------
B|--------------------------10-------
G|--10-------------------10----------
D|-----10-------------10-------------
A|--------10-------10----------------
E|-----------10-10-------------------
Main Riff
E|--------------------------------------------------------------------------------------
B|--------------------------------------------------------------------------------------
G|--------------------10-------------------10-------------------10-------------------10-
D|--------10-------10----------10-------10----------10-------10----------10-------10----
A|-----10-------10----------10-------10----------10-------10----------10-------10-------
E|--10-------10----------10-------10----------10-------10----------10-------10----------

E|--------------------------------------------------------------------------------------------
B|--------------------------------------------------------------------------------------------
G|--------------------10-------------------10-------------------10-------------------10----10-
D|--------10-------10----------10-------10----------10-------10----------10-------10----10----
A|-----10-------10----------10-------10----------10-------10----------10-------10-------------
E|--10-------10----------10-------10----------10-------10----------10-------10----------------
Chorus
E|--------------------------------------------------------------------
B|--------------------------------10-------------------------------10-
G|--------------------------------------------------------------------
D|-----------10-------------10----------------10-------------10-------
A|--------10----10-------10----10----------10----10-------10----10----
E|--10-10----------10-10-------------10-10----------10-10-------------

E|--------------------------------------------------------------------
B|--------------------------------------------------------------10----
G|--10-------------------------10-------------------10----10-------10-
D|-----10----------10-------10----------10-------10----10----10-------
A|--------10----10-------10----------10-------10----------------------
E|-----------10-------10----------10-------10-------------------------
Main Riff 2
E|--------------------------------------------------------------------------------------------------------
B|--------------------------------------------------------------------------------------------------------
G|--------------------------------------10-------------------------------------------10-------------------
D|--------------------------10-10-10-10----10----------------------------10-10-10-10----10----------------
A|--------------10-10-10-10-------------------10-------------10-10-10-10-------------------10-------------
E|--10-10-10-10----------------------------------10-10-10-10----------------------------------10-10-10----

E|-----------------------------------------------------------------------------------------------------------------
B|-----------------------------------------------------------------------------------------------------------------
G|--------------------------------------------10----------------------------10-------------------10----------------
D|--------------------------------10-10-10-10----10-------------10-------10----------10-------10-------------------
A|--------------------10-10-10-10-------------------10-------10-------10----------10-------10----------10----------
E|--------10-10-10-10----------------------------------10-10-------10----------10-------10----------10----10-10-10-
Chorus 2
E|--------------------------------------------------------------------------------------------------------------------
B|--------------------------------------------------------------------------------------------------------------------
G|--------------------------------------------------------------------------------------------------------------------
D|-----------------------------------------------------10----------------------------10----------------------------10-
A|--------------------------------------10----------------------------10----------------------------10----------------
E|--10-10-10-10-10-10-10-10-10-10-10-10----10-10-10-10----10-10-10-10----10-10-10-10----10-10-10-10----10-10-10-10----
Buildup (Drum Solo)
E|-----------------------------------
B|-----------------------------------
G|-----------------------------------
D|-----------------------------------
A|-----------------------------------
E|-----------------------------------

Solo
E|--------------------------------------------------------------------------------
B|--6--7--8--9--10-8--7--6--8--7--6--7--6--7--8--7--6--7--8--7--6--8--7--22-21-20-
G|--------------------------------------------------------------------------------
D|--------------------------------------------------------------------------------
A|--------------------------------------------------------------------------------
E|--------------------------------------------------------------------------------

E|--------------------------------------------------------------------------------------------------------
B|--19-18-17-16-15-14-13-12-11-10-9--8--7--6--7--8--9--8--7--6--------------------------------------------
G|-----------------------------------------------------------------------------------------------------10-
D|-----------------------------------------------------------------11-------11-------11-------------10----
A|--------------------------------------------------------------11-------11-------11----------10----------
E|--------------------------------------------------------------------10-------10-------10-11----10-------
Drum Solo 2
Capo at 10th fret
E|--------------------------------------
B|--------------------------------------
G|--------------------------------------
D|--------------------------------------
A|--------------------------------------
E|--------------------------------------

E|--------------------------
B|--------------------------
G|--------------------------
D|--------0-----------------
A|-----0-----0--------------
E|--0-----------0--0--0--0v-






tabs and chords, guitar tabs, music transcription, music technology, deep learning, music information retrieval, transcribe into tabs & chords, chordify, music renditions, songsterr, reverbnation, tabulature, bollywood chords, ultimate guitar, yousician, guitar lessons, acoustic guitar, electric guitar, guitar tuner, 911 tabs