Bass Tabs for Walking Bass Line

Walking Bass Line



G|--------------
D|--------------
A|--3-----5-----
E|-----3-----5--

G|--------------------------
D|--------------------------
A|--3--------4--5--------2--
E|-----2--3--------4--5-----


G|--------------------------
D|--------------------------
A|--3--------6--5--------4--
E|-----4--3--------6--5-----

G|--------------------------
D|--------------------------
A|--3--------6--5--------4--
E|-----2--3--------4--5-----

G|--
D|--
A|--
E|--



tabs and chords, guitar tabs, music transcription, music technology, deep learning, music information retrieval, transcribe into tabs & chords, chordify, music renditions, songsterr, reverbnation, tabulature, bollywood chords, ultimate guitar, yousician, guitar lessons, acoustic guitar, electric guitar, guitar tuner, 911 tabs