Walk Away As The Door Slams - Bass Tabs

(/) Slide Up  (\) Slide Down  (h) Hammer On  (p) Pull Off  (b) Bend (r) Release (v) Vibrato (x) Muted

Tabs for Song : 
BPM : 135

 ??club lights we fight every night??
G|--------------------------------------------------------------------------------------------------
D|--------------------------------------------------------------------------------------------------
A|--------------------------------------------------------------------------------------------------
C|--1--1--1--1--1--1--1---1/4--4--4--4--4--4--4---4/8--8--8--8--8--8--8---8\6--6--6--6--6--6--6--6--
      drums start
G|--------------------------------------------------------------------------------------------------
D|--------------------------------------------------------------------------------------------------
A|--------------------------------------------------------------------------------------------------
C|--1--1--1--1--1--1--1--1--1--1--1--1--1--1--1---1/4--4--4--4--4--4--4--4--4--4--4--4--4--4--4---4/

G|--------------------------------------------------------------------------------------------------
D|--------------------------------------------------------------------------------------------------
A|--------------------------------------------------------------------------------------------------
C|--8--8--8--8--8--8--8--8--8--8--8--8--8--8--8---8\6--6--6--6--------------------6--6--6--6--6--6--

G|--------------------------------------------------------------------------------------------------
D|--------------------------------------------------------------------------------------------------
A|--------------------------------------------------------------------------------------------------
C|--1--1--1--1--1--1--1--1--1--1--1--1--1--1--1---1/4--4--4--4--4--4--4--4--4--4--4--4--4--4--4---4/

G|--------------------------------------------------------------------------------------------------
D|--------------------------------------------------------------------------------------------------
A|--------------------------------------------------------------------------------------------------
C|--8--8--8--8--8--8--8--8--8--8--8--8--8--8--8---8\6--6--6--6--------------------------------------
 
 ??I know u wanna face time??      
G|--------------------------------------------------------------------------------------------------
D|--------------------------------------------------------------------------------------------------
A|--------------------------------------------------------------------------------------------------
C|--1--1--1--1--1--1--1--1--1--1--1--1--1--1--1---1/4--4--4--4--4--4--4--4--4--4--4--4--4--4--4---4/

G|--------------------------------------------------------------------------------------------------
D|--------------------------------------------------------------------------------------------------
A|--------------------------------------------------------------------------------------------------
C|--8--8--8--8--8--8--8--8--8--8--8--8--8--8--8---8\6--6--6--6--6--6--6--6--------------------------

G|--------------------------------------------------------------------------------------------------
D|--------------------------------------------------------------------------------------------------
A|--------------------------------------------------------------------------------------------------
C|--1--1--1--1--1--1--1--1--1--1--1--1--1--1--1---1/4--4--4--4--4-----------------------------------

G|--------------------------------------------------------------------------------------------------
D|--------------------------------------------------------------------------------------------------
A|--------------------------------------------------------------------------------------------------
C|--8--8--8--8--8--8--8--8--8--8--8--8--8--8--8---8\6--6--6--6--6--6--6--6--6-----------------------

G|--------------------------------------------------------------------------------------------------
D|--------------------------------------------------------------------------------------------------
A|--------------------------------------------------------------------------------------------------
C|--1-----1-----1-----1-----4-----4-----4-----------8-----8-----8-----8-----6-----6-----6-----------

G|--------------------------------------------------------------------------------------------------
D|--------------------------------------------------------------------------------------------------
A|--------------------------------------------------------------------------------------------------
C|--1--1--1--1--1--1--1--1--1--1--1--1--1--1--1---1/4--4--4--4--4--4--4--4--4--4--4--4--4--4--4---4/

G|--------------------------------------------------------------------------------------------------
D|--------------------------------------------------------------------------------------------------
A|--------------------------------------------------------------------------------------------------
C|--8--8--8--8--8--8--8--8--8--8--8--8--8--8--8---8/6--6--6--6--------------------------------------

G|--------------------------------------------------------------------------------------------------
D|--------------------------------------------------------------------------------------------------
A|--------------------------------------------------------------------------------------------------
C|--1--1--1--1--1--1--1---1/4--4--4--4--4--4--4---4/8--8--8--8--8--8--8---8\6--6--6-----------------

G|-----------------------------------------------------------------------------------------------------
D|-----------------------------------------------------------------------------------------------------
A|-----------------------------------------------------------------------------------------------------
C|--1--1--1--1--1--1--1---1/4--4--4--4--4--4--4---4/8--8--8--8--8--8--8---8\6--6--6--6--6--6---6b-8\0--

Song lyrics here 
G|--
D|--
A|--
C|--

Use manual mode to free up cursor. Paste any tab in acousterr tab maker and we'll play it !!!

About Hellboy (Lil Peep mixtape) : Hellboy is the fifth and final mixtape by American rapper Lil Peep . The mixtape had one single, "Girls," which was released on January 4, 2017 . In 2019, Pitchfork ranked Hellboy at number 193 in its list of "The 200 Best Albums of the 2010s" Hellboy was ranked at 193 . Peep announced the mixtape would be releasing on September 25, 2016 . Originally, the project was going to consist of eight tracks, seven remained on the final project, two with adjusted names . " Honestly", the song left off of the project's initial release; was later released as a single on all streaming platforms in December 2016 . Hellboy (Lil Peep mixtape)'s most popular songs include Girls. It had a contribution from notable artists like Lil Peep. Its music is influenced by genres - emo rap post-hardcore indie rock.

tabs and chords, guitar tabs, music transcription, music technology, deep learning, music information retrieval, transcribe into tabs & chords, chordify, music renditions, songsterr, reverbnation, tabulature, bollywood chords, ultimate guitar, yousician, guitar lessons, acoustic guitar, electric guitar, guitar tuner, 911 tabs