Walk Up And Walk Down Key Of C - Bass Tabs

(/) Slide Up  (\) Slide Down  (h) Hammer On  (p) Pull Off  (b) Bend (r) Release (v) Vibrato (x) Muted

Tabs for Song : 
BPM : 200

Song lyrics here 
G|--------------------------------------------------------------
D|-----------------------2--3-----------3--3--2-----------5-----
A|--3-----------3--3--5-----------3--------------5--3-----------
E|--------3-----------------------------------------------------

G|--------------------------------------------------------------------
D|--------------------------------------------5--------------------2--
A|--3--3--2-----------5--5-----------2--3-----------3--------3--5-----
E|-----------5--3-----------3--3--5--------------------5--3-----------

G|-----------------------------------------------------------------------------------------
D|--3-----------------3--2-----------------------------------------------------------------
A|--------3-----------------5--3--------3--2--------------------2--3--------------------2--
E|--------------1-----------------------------5--3--------3--5-----------3--------3--5-----

G|--------------------------------------------------------------
D|-----------2--3-----------3--3--2-----------5-----------------
A|--3--3--5-----------3--------------5--3-----------3--2--3--4--
E|--------------------------------------------------------------

G|--------------------------------------------------------------------
D|--------7-----7--------------4--5-----------------------------------
A|--5--------------5-----5--7-----------5--------7--5--2--0--------2--
E|--------------------5--------------------------------------3--5-----

G|-----------------------------------------------------
D|-----------------------------------7--5--------------
A|--3--------------3-----------3-----------7--3-----3--
E|--------3-----5--------3-----------------------3-----

Song lyrics here 
G|--
D|--
A|--
E|--

Use manual mode to free up cursor. Paste any tab in acousterr tab maker and we'll play it !!!

About Toys in the Attic (album) : The album is the band's most commercially successful studio LP in the United States . The album was ranked No. 229 on Rolling Stone's list of The 500 Greatest Albums of All Time . Aerosmith's previous album, Get Your Wings, co-produced that album with Ray Colcord . In the liner notes to the 1993 reissue of Greatest Hits, it was said by an unnamed member of the group that Toys in the Attic was a much more sophisticated record than the other stuff they'd done . Douglas: "They'd been playing Get Your Wings on the road for a year and had become better players - different" Toys in the Attic (album)'s most popular songs include Sweet Emotion,Walk This Way. It had an affiliation to bands - Toys in the Attic,Aerosmith. Its music is influenced by genres - hard rock blues rock.

tabs and chords, guitar tabs, music transcription, music technology, deep learning, music information retrieval, transcribe into tabs & chords, chordify, music renditions, songsterr, reverbnation, tabulature, bollywood chords, ultimate guitar, yousician, guitar lessons, acoustic guitar, electric guitar, guitar tuner, 911 tabs