Walk Don't Run (melody) - Guitar Tabs

(/) Slide Up  (\) Slide Down  (h) Hammer On  (p) Pull Off  (b) Bend (r) Release (v) Vibrato (x) Muted

Tabs for Song : 
BPM : 200

Verse/Chorus
e|-----------------------------------------------------------------------------------------------------------------------------------------
B|--------------------------------------1-----0--------------------------------------------------------------------------------------------
G|-----2--------------------------0--2--------------2--------------------0--2-----0---------------------------------------------------1-----
D|--2-----------------0--2--3-----------------------------------0--2--3--------------3---2/-1\2--2--------0--2--3--2--0-----2----- 0--2-----
A|--------0--2--3--------------------------------------0--2--3-----------------------------------------------------------/3-----/3-----------
E|-----------------------------------------------------------------------------------------------------------------------------------------

Verse/Bridge 
e|-----------------------------------------------------------------------------------------------------------------0--
B|-----------------------------1--0--------------------------------------------------------------------------------1--
G|--2--------------------0--2--------2--------------------0--2--0--------------------------------------------------0--
D|--------------0--2--3--------------------------0--2--3-----------3---2\-1/2--2-----0--2--3--2--0--------2-----0--2--
A|-----0--2--3--------------------------0--2--3--------------------------------------------------------3-----3-----3--
E|--------------------------------------------------------------------------------------------------------------------

e|--------------------------------------0-----0--0-----------------------0-----0--0-----1--------------------------0--
B|--------------------------------------1-----1--1-----------------------1-----1--1-----1--------------------------0--
G|-----------------------0-----0--0-----0-----0--0-----0-----2--2--2-----2-----2--2-----2--2--------2--------------1--
D|--------------0--2--3-----------------2-----2--2-----------------------2-----2--2-----3-----3-----------3--------2--
A|-----0--2--3--------------------------3-----3--3-----------------------0-----0--0-----3--------3-----------3-----2--
E|--3-----------------------------------------------------------------------------------1--------------------------0--
                                        V           Verse/Turnaround
E|--------------------------0--------------------------------------------------------------------------------------------
B|--0--------0--------------1-----------------------------------------------------1--0-----------------------------------
G|-----1-----------1--------2--------------------------2--------------------0--2-----------2--------------------0--2--0--
D|--------2-----------2-----2-----------/2--0-----------------------0--2--3-----------------------------0--2--3-----------
A|--------------------------0-----------------3--2--------0--2--3-----------------------------0--2--3--------------------
E|-----------------------------------------------------------------------------------------------------------------------
                                                       Watch your rhythm here!   
E|-----------------------------------------------------0--------3-----3--3-----0--
B|-----------------------------------------------------1--------3-----3--3-----1--
G|-----------------------------------------------------0--------0-----0--0-----0--
D|--3---2/-1\2--2--------0--2--3--2--0-----2--------2--2--------0-----0--0-----2-- 
A|--------------------------------------3--------3-----3--------2-----2--2-----3--
E|--------------------------------------------------------------3-----3--3--------

E|--
B|--
G|--
D|--
A|--
E|--

Use manual mode to free up cursor. Paste any tab in acousterr tab maker and we'll play it !!!

About The Ventures : The Ventures formed in 1958 in Tacoma, Washington, by Don Wilson and Bob Bogle . The band helped to popularize the electric guitar in the United States and across the world during the 1960s . The Ventures are the best-selling instrumental band of all time . 38 of the band's albums charted in the 1960s and early 1970s . "Walk, Don't Run" is often cited as one of the top songs recorded for guitar . The Ventures were among the first to employ and popularize fuzz and flanging guitar effects . Their instrumental virtuosity, innovation, and unique sound influenced many musicians and bands . The Ventures The group has many notable artists like Don Wilson,Bob Bogle. Their music is influenced by genres - instrumental rock , surf rock.

tabs and chords, guitar tabs, music transcription, music technology, deep learning, music information retrieval, transcribe into tabs & chords, chordify, music renditions, songsterr, reverbnation, tabulature, bollywood chords, ultimate guitar, yousician, guitar lessons, acoustic guitar, electric guitar, guitar tuner, 911 tabs