Guitar Tabs for W Kwartecie Przejscie

(/) Slide Up  (\) Slide Down  (h) Hammer On  (p) Pull Off  (b) Bend (r) Release (v) Vibrato (x) Muted

Tabs for Song : 
BPM : 200

Song lyrics here 
D|--------------------------------------------------------------------------------
A|--------------------------------------------------------------------------------
F|--------------------------------------------------------------------------------
C|--------------------------------------------------------------------------------
G|--7--7--7--7--7--8--7--5--5--5--3--2--0--7--7--7--7--7--8--7--5--5--5--7--8--7--
C|--------------------------------------------------------------------------------

Song lyrics here 
D|--------------------------------------------------------------------------------
A|--------------------------------------------------------------------------------
F|--------------------------------------------------------------------------------
C|--------------------------------------------------------------------------------
G|--7--7--7--7--7--8--7--5--5--5--3--2--0--7--7--7--7--7--8--7--5--5--5--7--8--7--
C|--------------------------------------------------------------------------------

Use manual mode to free up cursor. Paste any tab in acousterr tab maker and we'll play it !!!

Bass Tabs for W Kwartecie Przejscie






F|--------------------------------------------------------------------------------
C|--------------------------------------------------------------------------------
G|-----------------------------------2--0-----------------------------------2--0--
C|-----------------------------------------2--------------------------------------




F|--------------------------------------------------------------------------------
C|--------------------------------------------------------------------------------
G|-----------------------------------2--0-----------------------------------------
C|--2--------------------------------------2--------------------------------------

tabs and chords, guitar tabs, music transcription, music technology, deep learning, music information retrieval, transcribe into tabs & chords, chordify, music renditions, songsterr, reverbnation, tabulature, bollywood chords, ultimate guitar, yousician, guitar lessons, acoustic guitar, electric guitar, guitar tuner, 911 tabs