Guitar Tabs for Vous Etes Mon Couer

(/) Slide Up  (\) Slide Down  (h) Hammer On  (p) Pull Off  (b) Bend (r) Release (v) Vibrato

Tabs for Song : 

Intro/Verse
E|--------------------------5-----2-----------------5-----2--7-----2-----------------0-----2--0-----------------
B|-----------------------------------------------------------------------------------------------------3--------
G|--------------------------------------------------------------------------------------------------------------
D|-----0-----0-----0-----0--0-----0-----0-----0-----0-----0--0-----0-----0-----0-----0-----0--0-----0--0-----0--
A|--------------------------------------------------------------------------------------------------------------
D|--0-----0-----0-----0--------0-----0-----0-----0-----0--------0-----0-----0-----0-----0--------0--------0-----

E|--------------------2--
B|--0--------3-----------
G|-----------------------
D|--0-----0--0-----0--0--0
A|-----------------------
D|-----0--------0--------

Chorus
E|-----------------------------------------------------------------------------------------
B|--------0-----2-----3-----7-----7-----7-----7-----5-----5-----5-----5-----------0-----2--
G|-----0-----0-----0-----0--0--------------------------------------------------0-----0-----
D|-----------------------------------------------------------------------------------------
A|-----------------------------------------------------------------------------------------
D|--5-----5-----5-----5--------0-----0-----0-----0-----0-----0-----0-----0--5-----5-----5--

E|--------------------------------------------------
B|-----3-----10----10----10----10----7-----7-----7--
G|--0-----0--0--------------------------------------
D|--------------------------------------------------
A|--------------------------------------------------
D|-----5--------0-----0-----0-----0-----0-----0-----

Now supports capo and sound effects for vibrato/pull-off/hammer/bends etc !!! Checkout help section
tabs and chords, guitar tabs, music transcription, music technology, deep learning, music information retrieval, transcribe into tabs & chords, chordify, music renditions, songsterr, reverbnation, tabulature, bollywood chords, ultimate guitar, yousician, guitar lessons, acoustic guitar, electric guitar, guitar tuner, 911 tabs