Guitar Tabs for Von Guten Mächten

(/) Slide Up  (\) Slide down
either tune the guitar up 3 steps or use capo on 3rd


Tabs for Song : 
BPM : 200

    C                          G                        E7sus4     Am             C
G|-----------------------------------------------------------------------------------------------------
D|-----1-----1--1-----------0--3---------3/5--------3-----3--------1-----------1--1--------1v----------
A|--0-----0--------0-----0-----------0--------0--------0--2-----2-----2-----2--------0--------0-----0--
F|--------------------2-----------0--------------0-----------2-----------2--------------2--------2-----
C|-----3--------------------------------------------------------------------------3--------------------
G|-----------------------------3-----------------------------------------------------------------------
   Von guten Mächten           treu und still        umgeben
  
       F                       Dm                      G
G|-----1--------1-----------0--1-----0--------------------------------------------------------------
D|--1--------1-----1-----1--------------3--------1-----3--------3-----------3--1--------0-----------
A|--------2-----------2-----------2--------2--------0--------0-----0-----0--------0--------0-----0--
F|-----3-----------------------0--------------0-----------0-----------0--------------0--------0-----
C|--------------------------------------------------------------------------------------------------
G|-----------------------------------------------------3-----------------------3--------------------
    behütet und              getröstet          wunderbar     
    
    C                          G                       E7sus4  Am                 C
G|-----------------------------------------------------------------------------------------------------f(
D|-----1-----1--1-----------0--3---------3/5--------3-----3--------1-----------1--1--------1-----------
A|--0-----0--------0-----0-----------0--------0--------0--2-----2-----2-----2--------0--------0-----0--
F|--------------------2-----------0--------------0-----------2-----------2--------------2--------2-----
C|-----3--------------------------------------------------------------------------3--------------------
G|-----------------------------3-----------------------------------------------------------------------
    so will ich  diese         Tage      mit  euch        leben

       F                       C        G           C
G|-----1--------1-----------1--0--------0-----------------------------------------------------
D|--1--------1-----1-----1-----------1-----3-----1--0--1--------1--------1--------------1-----
A|--------2-----------2-----------0-----------0--------------0-----0--------0--------0--------
F|-----3--------------------------------------------------2-----------2-----------2-----------
C|-----------------------------3-----------------------3-----------------------3--------------
G|-----------------------------------------3--------------------------------------------------
    und mit euch gehen       in ein        nerues      Jahr

       C                       G5                         Am                      C   
G|--0-----3--------3-----------3--3-----1--0-----------------------------------------------
D|-----1--------1-----1-----1--------3--------0-----3-----1--------1-----------1--1--------
A|-----------0-----------0-----------------------0-----0--2-----2-----2-----2-----------0--
F|-----------------------------------------------------------2-----------2-----------2-----
C|--------3-----------------------------------------------------------------------3--------
G|--------------------------------3--------------------------------------------------------
    Von guten Mächten             wunderbar         geborgen 
    
                   D5                                              G                       C 
G|--0--1-----3-----5--------5-----------5---5\0v-3-----1--0-----------------------------------------------------
D|--------0-----0--------3-----3-----3------3\0v-------------0-----3--------3-----------3--1--------0-----------
A|--------------------0-----------0-----------------------------0--------0-----0-----0-----------0-----0-----0--
F|--------------------------------------------------------------------0-----------0-----------0-----------0-----
C|-----------------5------------------------5\0v----------------------------------------------------------------
G|-----------------------------------------------------------------3-----------------------3--------------------
    Erwarten       wir getrost,                         was kommen mag.
          
          C                    G                          Am                      C
G|--0-----3--------3-----------3--3-----1--0-----------------------------------------------------------
D|--------------1-----1-----1-----------------0-----3-----1--------1-----------1--1--------1-----------
A|-----------0-----------0-----------0-----------0-----0--2-----2-----2-----2-----------0-----0-----0--
F|-----------------------------------------------------------2-----------2-----------2-----------2-----
C|--------3-----------------------------------------------------------------------3--------------------
G|--------------------------------3--------------------------------------------------------------------
    Gott ist bei uns           am Abend   und       am    Morgen
    
       Am                      G                       C      
G|-----------------------------------------------------------------------------------------------------------
D|--1--1--------3---------5\3--3--------1--------1-----1--------1--------1--------------1--------------------
A|-----------2-----2-----------------0-----2--------0--------0-----0--------0--------0-----------------------
F|--------2-----------2-----------0-----------0-----------2-----------2-----------2--------------------------
C|-----0-----------------------------------------------3-----------------------3-----------------------------
G|-----------------------------3-----------------------------------------------------------------------------
   Und ganz  gewiss       an  jedem   neuen           Tag.

Repeat everything from the top


                                     G                       C                                         C
G|--------------------------------------------------------------------1--------1--------1-----------1-----------------0
D|--1--1--1--------3---------3/-5\3--3--------1--------1-----1-----------1--------1--------1-----1--------------1-----
A|--------------2-----2-----------------0--------2--------0--------0--------0--------0--------0--------------0--------
F|-----------3-----------3-----------------0--------0-----------2-----------------------------------------2-----------
C|--------0--------------------------------------------------3-----------------------------------------3--------------
G|-----------------------------------3--------------------------------------------------------------------------------

tabs and chords, guitar tabs, music transcription, music technology, deep learning, music information retrieval, transcribe into tabs & chords, chordify, music renditions, songsterr, reverbnation, tabulature, bollywood chords, ultimate guitar, yousician, guitar lessons, acoustic guitar, electric guitar, guitar tuner, 911 tabs