Void - Rotten Sound - Guitar Tabs

Raita 1
    
                                                                                                                                                                                                                                                                                                                                                                                                                                                                                                                                                                                                 
E|-------------------------|
B|-------------------------|
G|-------------------------|
D|--6-----4-----6-----10---|
A|--4-----2-----4-----8----|
E|--4-----2-----4-----8----|

    
                                                                                                                                                                                                                                                                                                                                                                                                                                                                                                                                                                                                                                                                                                                                                                                                                                                                                                                                                                                                                                                                                                                                                                                              
E|-------------------------|-----------------------|
B|-------------------------|-----------------------|
G|-------------------------|-----------------------|
D|--6-----4-----6-----10---|6-----4-----6-----10---|
A|--4-----2-----4-----8----|4-----2-----4-----8----|
E|--4-----2-----4-----8----|4-----2-----4-----8----|

    
                                                                                                                                                                                                                                                                                                                                                                                                                                                                                                                                                                                                                                                                                                                                                                                                                                                                                                                                                                                                                                                                                                                                                                                              
E|-------------------------|-----------------------|
B|-------------------------|-----------------------|
G|-------------------------|-----------------------|
D|--6-----4-----6-----10---|4--4--4--4--3--3--3--3-|
A|--4-----2-----4-----8----|2--2--2--2--1--1--1--1-|
E|--4-----2-----4-----8----|2--2--2--2--1--1--1--1-|

    
                                                                                                                                                                                                                                                                                                                                                                                                                                                                                                                                                                                                                                                                                                                                                                                                                                                                                                                                                                                                                                                                                                                                                                                              
E|-------------------------|-----------------------|
B|-------------------------|-----------------------|
G|-------------------------|-----------------------|
D|--4--4--4--4--3--3--3--3-|4--4--4--4--3--3--3--3-|
A|--2--2--2--2--1--1--1--1-|2--2--2--2--1--1--1--1-|
E|--2--2--2--2--1--1--1--1-|2--2--2--2--1--1--1--1-|

    
                                                                                                                                                                                                                                                                                                                                                                                                                                                                                                                                                                                                                                                                                                                                                                                                                                                                                                                                                                                                                                                                                                                                                                                              
E|-------------------------|-----------------------|
B|-------------------------|-----------------------|
G|-------------------------|-----------------------|
D|--4--4--4--4--3--3--6--7-|6-----4-----6-----10---|
A|--2--2--2--2--1--1--4--5-|4-----2-----4-----8----|
E|--2--2--2--2--1--1--4--5-|4-----2-----4-----8----|

    
                                                                                                                                                                                                                                                                                                                                                                                                                                                                                                                                                                                                                                                                                                                                                                                                                                                                                                                                                                                                                                                                                                                                                                                              
E|-------------------------|-----------------------|
B|-------------------------|-----------------------|
G|-------------------------|-----------------------|
D|--6-----4-----6-----10---|6-----4-----6-----10---|
A|--4-----2-----4-----8----|4-----2-----4-----8----|
E|--4-----2-----4-----8----|4-----2-----4-----8----|

    
                                                                                                                                                                                                                                                                                                                                                                                                                                                                                                                                                                                                                                                                                                                                                                                                                                                                                                                                                                                                                                                                                                                                                                                              
E|-------------------------|-----------------------|
B|-------------------------|-----------------------|
G|-------------------------|-----------------------|
D|--6-----4-----6-----10---|4--4--4--4--3--3--3--3-|
A|--4-----2-----4-----8----|2--2--2--2--1--1--1--1-|
E|--4-----2-----4-----8----|2--2--2--2--1--1--1--1-|

    
                                                                                                                                                                                                                                                                                                                                                                                                                                                                                                                                                                                                                                                                                                                                                                                                                                                                                                                                                                                                                                                                                                                                                                                              
E|-------------------------|-----------------------|
B|-------------------------|-----------------------|
G|-------------------------|-----------------------|
D|--4--4--4--4--3--3--3--3-|4--4--4--4--3--3--3--3-|
A|--2--2--2--2--1--1--1--1-|2--2--2--2--1--1--1--1-|
E|--2--2--2--2--1--1--1--1-|2--2--2--2--1--1--1--1-|

    
                                                                                                                                                                                                                                                                                                                                                                                                                                                                                                                                                                                                                                                                                                                                                                                                                                                                                                                                                                                                                                                                                                                                                                                              
E|-------------------------|-----------------------|
B|-------------------------|-----------------------|
G|-------------------------|-----------------------|
D|--4--4--4--4--3--3--6--7-|6-----4-----6-----10---|
A|--2--2--2--2--1--1--4--5-|4-----2-----4-----8----|
E|--2--2--2--2--1--1--4--5-|4-----2-----4-----8----|

    
                                                                                                                                                                                                                                                                                                                                                                                                                                                                                                                                                                                                                                                                                                                                                                                                                                                                                                                                                                                                                                                                                                                                                                                              
E|-------------------------|-----------------------|
B|-------------------------|-----------------------|
G|-------------------------|-----------------------|
D|--6-----4-----6-----10---|6-----4-----6-----10---|
A|--4-----2-----4-----8----|4-----2-----4-----8----|
E|--4-----2-----4-----8----|4-----2-----4-----8----|

    
                                                                                                                                                                                                                                                                                                                                                                                                                                                                                                                                                                                                                                                                                                                                                                                                                                                                                                                                                                                                                                                                                                                                                                                              
E|-------------------------|-----------------------|
B|-------------------------|-----------------------|
G|-------------------------|-----------------------|
D|--6-----4-----6-----10---|6-----4-----6-----10---|
A|--4-----2-----4-----8----|4-----2-----4-----8----|
E|--4-----2-----4-----8----|4-----2-----4-----8----|

    
                                                                                                                                                                                                                                                                                                                                                                                                                                                                                                                                                                                                                                                                                                                                                                                                                                                                                                                                                                                                                                                                                                                                                                                              
E|-------------------------|-----------------------|
B|-------------------------|-----------------------|
G|-------------------------|-----------------------|
D|--6-----4-----6-----10---|6-----4-----6-----10---|
A|--4-----2-----4-----8----|4-----2-----4-----8----|
E|--4-----2-----4-----8----|4-----2-----4-----8----|

    
                                                                                                                                                                                                                                                                                                                                                                                                                                                                                                                                                                                                                                                                                                                                                                                                                                                                                                                                                                                                                                                                                                                                                                                              
E|-------------------------|-----------------------|
B|-------------------------|-----------------------|
G|-------------------------|-----------------------|
D|--6-----4-----6-----10---|6-----4-----6-----10---|
A|--4-----2-----4-----8----|4-----2-----4-----8----|
E|--4-----2-----4-----8----|4-----2-----4-----8----|

    
                                                                                                                                                                                                                                                                                                                                                                                                                                                                                                                                                                                                                                                                                                                                                                                                                                                                                                                                                                                                                                                                                                                                                                                              
E|-------------------------|-----------------------|
B|-------------------------|-----------------------|
G|-------------------------|-----------------------|
D|--6-----4-----6-----10---|4--4--4--4--3--3--3--3-|
A|--4-----2-----4-----8----|2--2--2--2--1--1--1--1-|
E|--4-----2-----4-----8----|2--2--2--2--1--1--1--1-|

    
                                                                                                                                                                                                                                                                                                                                                                                                                                                                                                                                                                                                                                                                                                                                                                                                                                                                                                                                                                                                                                                                                                                                                                                              
E|-------------------------|-----------------------|
B|-------------------------|-----------------------|
G|-------------------------|-----------------------|
D|--4--4--4--4--3--3--3--3-|4--4--4--4--3--3--3--3-|
A|--2--2--2--2--1--1--1--1-|2--2--2--2--1--1--1--1-|
E|--2--2--2--2--1--1--1--1-|2--2--2--2--1--1--1--1-|

    
                                                                                                                                                                                                                                                                                                                                                                                                                                                                                                                                                                                                                                                                                                                                                                                                                                                                                                                                                                                                                                                                                                                                                                                              
E|-------------------------|-----------------------|
B|-------------------------|-----------------------|
G|-------------------------|-----------------------|
D|--4--4--4--4--3--3--6--7-|---------6--7----------|
A|--2--2--2--2--1--1--4--5-|---------4--5----------|
E|--2--2--2--2--1--1--4--5-|---------4--5----------|

About Murderworks : Murderworks is the third studio album by Finnish grindcore band Rotten Sound . The album was recorded at Sound Manufacturers in Germany considered the original cover and band photos too disturbing for German consumers . As a replacement, the cover was re-colored in shades of red and white, with a note saying, "Check booklet for original artwork" Murderworks was reissued by Relapse Records in 2005 . The album also includes two live videos for "Seeds" and "Strongman" It had an affiliation to bands - Murderworks,Rotten Sound. Its music is influenced by genres - grindcore.

tabs and chords, guitar tabs, music transcription, music technology, deep learning, music information retrieval, transcribe into tabs & chords, chordify, music renditions, songsterr, reverbnation, tabulature, bollywood chords, ultimate guitar, yousician, guitar lessons, acoustic guitar, electric guitar, guitar tuner, 911 tabs