Guitar Tabs for Victor's Solo - Corpse Bride

Tabs for Song : 

E|-----2--3-----0--------------------------------0--------------------0-----------4-----4--4-----4--4--
B|-----------4-----0--1--------0--1-----------2-----2--------------2-----2-----------------------------
G|--------------------------4--------------1-----------1--------1-----------1--------------------------
D|-----------------------------------------------------------------------------------------------------
A|--------------------------------------4--------------------4-----------------------------------------
E|-----------------------------------------------------------------------------------------------------
 
E|--4--5-----4--7-----7--7-----5--4-----2-----2--4-----5--4-----0-----0-----0--------2-----2-----2--2--
B|-----------------------------------------------------------------------------4--2--------------------
G|-----------------------------------------------------------------------------------------------------
D|-----------------------------------------------------------------------------------------------------
A|-----------------------------------------------------------------------------------------------------
E|-----------------------------------------------------------------------------------------------------

E|--2-----2--2--0--------4-----4--4-----4--4-----4-----4--4-----4--0--0--------------------------------
B|--------------------4-----------------------------------------------------4--2--2--1--2--2-----2--4--
G|-----------------------------------------------------------------------------------------------------
D|-----------------------------------------------------------------------------------------------------
A|-----------------------------------------------------------------------------------------------------
E|-----------------------------------------------------------------------------------------------------

E|-----0-----0--0-----2-----4--4-----4--2--0--0--------------4--4-----4--4--4--4--4--4-----4--5--4--0--
B|--4--------------------------------------------3--1--------------------------------------------------
G|-----------------------------------------------------3-----------------------------------------------
D|-----------------------------------------------------------------------------------------------------
A|-----------------------------------------------------------------------------------------------------
E|-----------------------------------------------------------------------------------------------------

E|-----------------------------------------------------------------------0--0-----------0--0-----------
B|--2--0-----0--0-----0--0-----0--0-----------0-----0-----0--0--1--3--------------1--3-----------1--3--
G|--------------------------------------2--------------------------------------------------------------
D|-----------------------------------------------------------------------------------------------------
A|-----------------------------------------------------------------------------------------------------
E|-----------------------------------------------------------------------------------------------------

E|--0--0--
B|--------
G|--------
D|--------
A|--------
E|--------
tabs and chords, guitar tabs, music transcription, music technology, deep learning, music information retrieval, transcribe into tabs & chords, chordify, music renditions, songsterr, reverbnation, tabulature, bollywood chords, ultimate guitar, yousician, guitar lessons, acoustic guitar, electric guitar, guitar tuner, 911 tabs