Vermchtnis Der Sonne - Lacrimosa - Guitar Tabs

Clean/Distortion
    
                                                                                                                                                                                                                                                                                                                                                                                                                                                                                                                                                                                                                                                                                                                                                                                                                                                                                                                                                                                                                                                                                                                                                                                              
E|--1--1--1--1-----1--1----|0--0--0--0-----0--0----|
B|--3--3--3--3-----3--3----|2--2--2--2-----2--2----|
G|--2--2--2--2-----2--2----|2--2--2--2-----2--2----|
D|--0--0--0--0-----0--0----|2--2--2--2-----2--2----|
A|-------------------------|0--0--0--0-----0--0----|
E|-------------------------|-----------------------|

    
                                                                                                                                                                                                                                                                                                                                                                                                                                                                                                                                                                                                 
E|--1--1--1--1-----1--1----|
B|--3--3--3--3-----3--3----|
G|--2--2--2--2-----2--2----|
D|--0--0--0--0-----0--0----|
A|-------------------------|
E|-------------------------|

    
                                                                                                                                                                                                                                                                                                                                                                                                                                                                                                                                                                                                                                                                                                                                                                                                                                                                                                                                                                                                                                                                                                                                                                                              
E|--1--1--1--1-----1--1----|1--1--1-----1--1--1----|
B|-------------------------|3--3--3-----3--3--3----|
G|--3--3--3--3-----3--3----|2--2--2-----2--2--2----|
D|--3--3--3--3-----3--3----|0--0--0-----0--0--0----|
A|--1--1--1--1-----1--1----|-----------------------|
E|-------------------------|-----------------------|

    
                                                                                                                                                                                                                                                                                                                                                                                                                                                                                                                                                                                                 
E|--0--0--0-----0--0--0----|
B|--2--2--2-----2--2--2----|
G|--2--2--2-----2--2--2----|
D|--2--2--2-----2--2--2----|
A|--0--0--0-----0--0--0----|
E|-------------------------|

    
                                                                                                                                                                                                                                                                                                                                                                                                                                                                                                                                                                                                                                                                                                                                                                                                                                                                                                                                                                                                                                                                                                                                                                                              
E|--1--1--1-----1--1--1----|1--1--1-----1--1--1----|
B|--3--3--3-----3--3--3----|-----------------------|
G|--2--2--2-----2--2--2----|3--3--3-----3--3--3----|
D|--0--0--0-----0--0--0----|3--3--3-----3--3--3----|
A|-------------------------|1--1--1-----1--1--1----|
E|-------------------------|-----------------------|

    
                                                                                                                                                                                                                                                                                                                                                                                                                                                                                                                                                                                                                                                                                                                                                                                                                                                                                                                                                                                                                                                                                                                                                                                              
E|--1--1--1-----1--1--1----|0--0--0-----0--0--0----|
B|--3--3--3-----3--3--3----|2--2--2-----2--2--2----|
G|--2--2--2-----2--2--2----|2--2--2-----2--2--2----|
D|--0--0--0-----0--0--0----|2--2--2-----2--2--2----|
A|-------------------------|0--0--0-----0--0--0----|
E|-------------------------|-----------------------|

    
                                                                                                                                                                                                                                                                                                                                                                                                                                                                                                                                                                                                 
E|--1--1--1-----1--1--1----|
B|--3--3--3-----3--3--3----|
G|--2--2--2-----2--2--2----|
D|--0--0--0-----0--0--0----|
A|-------------------------|
E|-------------------------|

    
                                                                                                                                                                                                                                                                                                                                                                                                                                                                                                                                                                                                                                                                                                                                                                                                                                                                                                                                                                                                                                                                                                                                                                                              
E|--1--1--1-----1--1--1----|1--1--1--1-----1--1----|
B|-------------------------|3--3--3--3-----3--3----|
G|--3--3--3-----3--3--3----|2--2--2--2-----2--2----|
D|--3--3--3-----3--3--3----|0--0--0--0-----0--0----|
A|--1--1--1-----1--1--1----|-----------------------|
E|-------------------------|-----------------------|

    
                                                                                                                                                                                                                                                                                                                                                                                                                                                                                                                                                                                                 
E|--0--0--0--0-----0--0----|
B|--2--2--2--2-----2--2----|
G|--2--2--2--2-----2--2----|
D|--2--2--2--2-----2--2----|
A|--0--0--0--0-----0--0----|
E|-------------------------|

    
                                                                                                                                                                                                                                                                                                                                                                                                                                                                                                                                                                                                                                                                                                                                                                                                                                                                                                                                                                                                                                                                                                                                                                                              
E|--1--1--1--1-----1--1----|1--1--1--1-----1--1----|
B|--3--3--3--3-----3--3----|-----------------------|
G|--2--2--2--2-----2--2----|3--3--3--3-----3--3----|
D|--0--0--0--0-----0--0----|3--3--3--3-----3--3----|
A|-------------------------|1--1--1--1-----1--1----|
E|-------------------------|-----------------------|

    
                                                                                                                                                                                                                                                                                                                                                                                                                                                                                                                                                                                                                                                                                                                                                                                                                                                                                                                                                                                                                                                                                                                                                                                              
E|--1--1--1--1-----1--1----|0--0--0--0-----0--0----|
B|--3--3--3--3-----3--3----|2--2--2--2-----2--2----|
G|--2--2--2--2-----2--2----|2--2--2--2-----2--2----|
D|--0--0--0--0-----0--0----|2--2--2--2-----2--2----|
A|-------------------------|0--0--0--0-----0--0----|
E|-------------------------|-----------------------|

    
                                                                                                                                                                                                                                                                                                                                                                                                                                                                                                                                                                                                                                                                                                                                                                                                                                                                                                                                                                                                                                                                                                                                                                                              
E|--1--1--1--1-----1--1----|1--1--1--1-----1--1----|
B|--3--3--3--3-----3--3----|-----------------------|
G|--2--2--2--2-----2--2----|3--3--3--3-----3--3----|
D|--0--0--0--0-----0--0----|3--3--3--3-----3--3----|
A|-------------------------|1--1--1--1-----1--1----|
E|-------------------------|-----------------------|

    
                                                                                                                                                                                                                                                                                                                                                                                                                                                                                                                                                                                                                                                                                                                                                                                                                                                                                                                                                                                                                                                                                                                                                                                              
E|--1--1--1--1-----1--1----|0--0--0--0-----0--0----|
B|--3--3--3--3-----3--3----|2--2--2--2-----2--2----|
G|--2--2--2--2-----2--2----|2--2--2--2-----2--2----|
D|--0--0--0--0-----0--0----|2--2--2--2-----2--2----|
A|-------------------------|0--0--0--0-----0--0----|
E|-------------------------|-----------------------|

    
                                                                                                                                                                                                                                                                                                                                                                                                                                                                                                                                                                                                                                                                                                                                                                                                                                                                                                                                                                                                                                                                                                                                                                                              
E|--1--1--1--1-----1--1----|1--1--1--1-----1--1----|
B|--3--3--3--3-----3--3----|-----------------------|
G|--2--2--2--2-----2--2----|3--3--3--3-----3--3----|
D|--0--0--0--0-----0--0----|3--3--3--3-----3--3----|
A|-------------------------|1--1--1--1-----1--1----|
E|-------------------------|-----------------------|

    
                                                                                                                                                                                                                                                                                                                                                                                                                                                                                                                                                                                                                                                                                                                                                                                                                                                                                                                                                                                                                                                                                                                                                                                              
E|-------------------------|-----------------------|
B|-------------------------|-----------------------|
G|-------------------------|-----------------------|
D|--3----------------------|7----------------------|
A|--1----------------------|5----------------------|
E|-------------------------|-----------------------|

    
                                                                                                                                                                                                                                                                                                                                                                                                                                                                                                                                                                                                                                                                                                                                                                                                                                                                                                                                                                                                                                                                                                                                                                                              
E|-------------------------|-----------------------|
B|-------------------------|-----------------------|
G|-------------------------|-----------------------|
D|--6----------------------|5----------------------|
A|--5----------------------|3----------------------|
E|-------------------------|-----------------------|

    
                                                                                                                                                                                                                                                                                                                                                                                                                                                                                                                                                                                                                                                                                                                                                                                                                                                                                                                                                                                                                                                                                                                                                                                              
E|-------------------------|-----------------------|
B|-------------------------|-----------------------|
G|-------------------------|-----------------------|
D|--8----------------------|7----------------------|
A|--7----------------------|5----------------------|
E|-------------------------|-----------------------|

    
                                                                                                                                                                                                                                                                                                                                                                                                                                                                                                                                                                                                                                                                                                                                                                                                                                                                                                                                                                                                                                                                                                                                                                                              
E|-------------------------|-----------------------|
B|-------------------------|-----------------------|
G|-------------------------|-----------------------|
D|--6----------------------|5----------------------|
A|--5----------------------|3----------------------|
E|-------------------------|-----------------------|

    
                                                                                                                                                                                                                                                                                                                                                                                                                                                                                                                                                                                                                                                                                                                                                                                                                                                                                                                                                                                                                                                                                                                                                                                              
E|-------------------------|-----------------------|
B|-------------------------|-----------------------|
G|-------------------------|-----------------------|
D|--8----------------------|7----------------------|
A|--7----------------------|5----------------------|
E|-------------------------|-----------------------|

    
                                                                                                                                                                                                                                                                                                                                                                                                                                                                                                                                                                                                                                                                                                                                                                                                                                                                                                                                                                                                                                                                                                                                                                                              
E|-------------------------|-----------------------|
B|-------------------------|-----------------------|
G|-------------------------|-----------------------|
D|--6----------------------|5----------------------|
A|--5----------------------|3----------------------|
E|-------------------------|-----------------------|

    
                                                                                                                                                                                                                                                                                                                                                                                                                                                                                                                                                                                                 
E|--1----------------------|
B|--3----------------------|
G|--2----------------------|
D|--0----------------------|
A|-------------------------|
E|-------------------------|

    
                                                                                                                                                                                                                                                                                                                                                                                                                                                                                                                                                                                                                                                                                                                                                                                                                                                                                                                                                                                                                                                                                                                                                                                              
E|--0----------------------|1----------------------|
B|--1----------------------|3----------------------|
G|--2----------------------|2----------------------|
D|--2----------------------|0----------------------|
A|--0----------------------|-----------------------|
E|-------------------------|-----------------------|

    
                                                                                                                                                                                                                                                                                                                                                                                                                                                                                                                                                                                                                                                                                                                                                                                                                                                                                                                                                                                                                                                                                                                                                                                              
E|--0----------------------|-----------------------|
B|--1----------------------|-----------------------|
G|--2----------------------|7----------------------|
D|--2----------------------|7----------------------|
A|--0----------------------|5----------------------|
E|-------------------------|-----------------------|

    
                                                                                                                                                                                                                                                                                                                                                                                                                                                                                                                                                                                                                                                                                                                                                                                                                                                                                                                                                                                                                                                                                                                                                                                              
E|-------------------------|-----------------------|
B|-------------------------|-----------------------|
G|-------------------------|7----------------------|
D|--7----------------------|7----------------------|
A|--7----------------------|5----------------------|
E|--5----------------------|-----------------------|

    
                                                                                                                                                                                                                                                                                                                                                                                                                                                                                                                                                                                                                                                                                                                                                                                                                                                                                                                                                                                                                                                                                                                                                                                              
E|-------------------------|-----------------------|
B|-------------------------|-----------------------|
G|--3----------------------|7----------------------|
D|--3----------------------|7----------------------|
A|--1----------------------|5----------------------|
E|-------------------------|-----------------------|

    
                                                                                                                                                                                                                                                                                                                                                                                                                                                                                                                                                                                                                                                                                                                                                                                                                                                                                                                                                                                                                                                                                                                                                                                              
E|-------------------------|-----------------------|
B|-------------------------|-----------------------|
G|-------------------------|7----------------------|
D|--7----------------------|7----------------------|
A|--7----------------------|5----------------------|
E|--5----------------------|-----------------------|

    
                                                                                                                                                                                                                                                                                                                                                                                                                                                                                                                                                                                                                                                                                                                                                                                                                                                                                                                                                                                                                                                                                                                                                                                              
E|-------------------------|1--1--1-----1--1--1----|
B|-------------------------|3--3--3-----3--3--3----|
G|--3----------------------|2--2--2-----2--2--2----|
D|--3----------------------|0--0--0-----0--0--0----|
A|--1----------------------|-----------------------|
E|-------------------------|-----------------------|

    
                                                                                                                                                                                                                                                                                                                                                                                                                                                                                                                                                                                                                                                                                                                                                                                                                                                                                                                                                                                                                                                                                                                                                                                              
E|--0--0--0-----0--0--0----|1--1--1-----1--1--1----|
B|--2--2--2-----2--2--2----|3--3--3-----3--3--3----|
G|--2--2--2-----2--2--2----|2--2--2-----2--2--2----|
D|--2--2--2-----2--2--2----|0--0--0-----0--0--0----|
A|--0--0--0-----0--0--0----|-----------------------|
E|-------------------------|-----------------------|

    
                                                                                                                                                                                                                                                                                                                                                                                                                                                                                                                                                                                                                                                                                                                                                                                                                                                                                                                                                                                                                                                                                                                                                                                              
E|--1--1--1-----1--1--1----|1--1--1-----1--1--1----|
B|-------------------------|3--3--3-----3--3--3----|
G|--3--3--3-----3--3--3----|2--2--2-----2--2--2----|
D|--3--3--3-----3--3--3----|0--0--0-----0--0--0----|
A|--1--1--1-----1--1--1----|-----------------------|
E|-------------------------|-----------------------|
tabs and chords, guitar tabs, music transcription, music technology, deep learning, music information retrieval, transcribe into tabs & chords, chordify, music renditions, songsterr, reverbnation, tabulature, bollywood chords, ultimate guitar, yousician, guitar lessons, acoustic guitar, electric guitar, guitar tuner, 911 tabs