Guitar Tabs for Vang Em Yeu Anh Demo

(/) Slide Up  (\) Slide Down  (h) Hammer On  (p) Pull Off  (b) Bend (r) Release (v) Vibrato (x) Muted

Tabs for Song :
capo on 4th fret

INTRO
E|--------------------------0--0-----------------------
B|--------0--3--3--0-----0--------0--------------------
G|--0--2--------------2--------------2--0--------0--2--
D|-----------------------------------------2--2--------
A|-----------------------------------------------------
E|-----------------------------------------------------
C] Nh? anh t?ng [G] ?êm tr?ng.[Am] Nh? anh t?ng [Em] ngày n?ng. [F] C?m lên t?m [C] hình ??t vào [F] tim em nh? [G] anh
E|--------------------------------------------------------------
B|--0-----------3--------------0--------------------------0-----
G|-----2--0--2-----0--------------------0-----------0--2-----2--
D|--------------------4--2--4-----2--4-----0--2--4--------------
A|--------------------------------------------------------------
E|--------------------------------------------------------------
2. [C] Và nh? sao vòng [G] tay ?m. [Am] Nh? sao hoài [Em] ?ôi m?t. [F] Và t? lúc [C] nào trái [F] tim em d??ng [G] nh? yêu [C] anh.
E|--------------------------------------------------------------------
B|-----0-----------3--------------0-----------------------------------
G|--------2--0--2-----0--------------------0-----2--0-----------0--0--
D|--0--------------------4--2--4-----2--4-----0--------4--2--4--------
A|--------------------------------------------------------------------
E|--------------------------------------------------------------------
: ??ng h?i [C] em trái [G] tim bao nhiêu [Am] ph?n nh? [Em] anh. Trái tim [F] em nh? bé m?ng [G] manh làm sao ??m [C] ???c
E|------------------------------0h2-----------------------------------------
B|--------0---3\5--3--0--------------3--0-----------0-----------3---3\5--0--
G|--0--2-----------------2--0--------------2--0--------0--2--2--------------
D|-----------------------------------------------2--------------------------
A|--------------------------------------------------------------------------
E|--------------------------------------------------------------------------
??ng h?i [C] em m?i [G] khi g?n bên [Em] anh có [Am] vui. Sao anh [F] không nhìn th?y b? [G] môi em ?ang th?m [Am] hát
E|--------------------------------------------------------------------------
B|--------0---3\5--3--0--3--3---5\7--5--0-----------0--------3--3--0---3\5--
G|--0--2-----------------------------------2--0--------0--2-----------------
D|-----------------------------------------------2--------------------------
A|--------------------------------------------------------------------------
E|--------------------------------------------------------------------------

??ng h?i [C] em phút [G] m? có bao [Am] gi? th?y [Em] anh. Em s? [F] c??i và nói r?ng [G] không làm anh thoáng [C] bu?n
E|-----------------------------2-----------------------------------------
B|--------0---3\5--3--0-----------3--0-----------0-----------3---3\5--0--
G|--0--2-----------------2--0-----------2--0--------0--2--2--------------
D|--------------------------------------------2--------------------------
A|-----------------------------------------------------------------------
E|-----------------------------------------------------------------------
T?ng ngày [C] th? l?ng [G] nghe, nhìn sâu [Em] trong m?t [Am] em
E|--------------------------------------
B|--------0---3\5--3--0--3--3---5\7--5--
G|--0--2--------------------------------
D|--------------------------------------
A|--------------------------------------
E|--------------------------------------
Anh không [F] nhìn làm sao th?y [G] em ?ang h?nh [Am] phúc 
E|--------------------------------------
B|--------------------------3--0---3\5--
G|--0-----------0---3\4--2--------------
D|-----4--2--4--------------------------
A|--------------------------------------
E|--------------------------------------

Paste any tab in acousterr's tab maker and we'll play it !!!
Now supports capo and sound effects for vibrato/pull-off/hammer/bends/mutes etc !!! Checkout help section
tabs and chords, guitar tabs, music transcription, music technology, deep learning, music information retrieval, transcribe into tabs & chords, chordify, music renditions, songsterr, reverbnation, tabulature, bollywood chords, ultimate guitar, yousician, guitar lessons, acoustic guitar, electric guitar, guitar tuner, 911 tabs