Guitar Tabs for Hirsipuutarha - Untitled

(/) Slide Up  (\) Slide Down  (h) Hammer On  (p) Pull Off  (b) Bend (r) Release (v) Vibrato (x) Muted

Tabs for Song : 

Song lyrics here
E|-------------------------------------------------------------------------------------------------------
B|--------------------------------------------------------------------------------------------------------
G|--------------------------------------------------------------------------------------------------------
D|--------------------------------------------------------------------------------------------------------
A|--10-------9--------------10-------9-----------------10-------9--------------10-------9-----------------
E|-----0--0-----0--0--0--0-----0--0-----0--0--0--8--10----0--0-----0--0--0--0-----0--0-----0--0--0--8--10-

E|-----------------------------------------------------------------------------------------------
B|-----------------------------------------------------------------------------------------------
G|-----------------------------------------------------------------------------------------------
D|--------------------------------------------------5-----4--------------10-------------12-------
A|--10-------9--------------10-------9--------------3-----2--------------7--------------9--------
E|-----0--0-----0--0--0--0-----0--0-----0--0--0--0-----------------0--------------0--------------

Song lyrics here
E|-----------------------------------------------------------------------
B|-----------------------------------------------------------------------
G|-----------------------------------------------------------------------
D|--------------------4-----5--------5--5--9--9--5--5--4--4--5--4--------
A|--2-----2-----2-----5-----7--------7--7--7--7--7--7--5--5--5--5--------
E|--0-----0-----0--------------------------------------------------------

E|-----------------------------------------------------------------------
B|-----------------------------------------------------------------------
G|-----------------------------------------------------------------------
D|--------------------4-----5--------5--5--9--9--5--5--4--4--5--4--------
A|--2-----2-----2-----5-----7--------7--7--7--7--7--7--5--5--5--5--------
E|--0-----0-----0--------------------------------------------------------

E|-----------------------------------------------------------------------
B|-----------------------------------------------------------------------
G|-----------------------------------------------------------------------
D|--------------------4-----5--------5--5--9--9--5--5--4--4--5--4--------
A|--2-----2-----2-----5-----7--------7--7--7--7--7--7--5--5--5--5--------
E|--0-----0-----0--------------------------------------------------------

E|-----------------------------------------------------------------------------------
B|-----------------------------------------------------------------------------------
G|-----------------------------------------------------------------------------------
D|--------------------4-----5--------5--5--9--9--5--5--4--4--5--4-----2--------------
A|--2-----2-----2-----5-----7--------7--7--7--7--7--7--5--5--5--5-----3--------------
E|--0-----0-----0--------------------------------------------------------------------

E|--------------------------------------------------
B|--------------------------------------------------
G|--------------------------------------------------
D|-----------------5--------4--------10-------12----
A|-----10-9-----3--------2--------7--------9-----9--
E|--0--------0--------0--------0--------0-----------



Paste any tab in acousterr's tab maker and we'll play it !!!
Now supports capo and sound effects for vibrato/pull-off/hammer/bends/mutes etc !!! Checkout help section

Bass Tabs for Hirsipuutarha - Untitled





G|--------------------------------------------------------------------------------------------------------
D|--------------------------------------------------------------------------------------------------------
A|--------------------------------------------------------------------------------------------------------
E|--0--0--0--0--0--0--0--0--0--0--0--0--0--0--0--0--0--0--0--0--0--0--0--0--0--0--0--0--0--0--0--0--0--0--



G|-----------------------------------------------------------------------------------------
D|-----------------------------------------------------------------------------------------
A|--5--5--5--5--5--5--5--5--5--5--5--5--5--5--5--5--3-----2--------------15-------------17-
E|-----------------------------------------------------------------0--------------0--------




G|-----------------------------------------------------------------
D|-----------------------------------------------------------------
A|--------------------9-----7--------7--7--10-10-7--7--5--5--7--5--
E|--0-----0-----0--------------------------------------------------



G|-----------------------------------------------------------------
D|-----------------------------------------------------------------
A|--------------------9-----7--------7--7--10-10-7--7--5--5--7--5--
E|--0-----0-----0--------------------------------------------------



G|-----------------------------------------------------------------
D|-----------------------------------------------------------------
A|--------------------9-----7--------7--7--10-10-7--7--5--5--7--5--
E|--0-----0-----0--------------------------------------------------



G|-----------------------------------------------------------------------
D|-----------------------------------------------------------------------
A|--------------------9-----7--------7--7--10-10-7--7--5--5--7--5-----3--
E|--0-----0-----0--------------------------------------------------------



G|--------------------------------------------------
D|--------------------------------------------------
A|-----------------------------------------9--10-9--
E|--0--0--0--8--8--8--7--7--7--3--3--3--0-----------

tabs and chords, guitar tabs, music transcription, music technology, deep learning, music information retrieval, transcribe into tabs & chords, chordify, music renditions, songsterr, reverbnation, tabulature, bollywood chords, ultimate guitar, yousician, guitar lessons, acoustic guitar, electric guitar, guitar tuner, 911 tabs