Guitar Tabs for Untitled

It’s mine not yours
So kindly shut the fuck up
E|--------------------------------------------------------------------------
B|--------------------------------------------------------------------------
G|--------------------------------------------------------------------------
D|--------4--4--4--4--------4--4--4--4--------4--4--4--4--------4--4--4--4--
A|--4--4--2--2--2--2--4--4--2--2--2--2--4--4--2--2--2--2--4--4--2--2--2--2--
E|--2--2--------------2--2--------------2--2--------------2--2-----------


My heart’s been torn
But you don’t care where it’s been stuck

E|--------------------------------------------------------------------------
B|--------------------------------------------------------------------------
G|--------------------------------------------------------------------------
D|--------9--9--9--9--------9--9--9--9--------9--9--9--9--------9--9--9--9--
A|--9--9--7--7--7--7--9--9--7--7--7--7--9--9--7--7--7--7--9--9--7--7--7--7--
E|--7--7--------------7--7--------------7--7--------------7--7--------------


Paste any tab in acousterr's tab maker and we'll play it !!!
Now supports capo and sound effects for vibrato/pull-off/hammer/bends/mutes etc !!! Checkout help section
tabs and chords, guitar tabs, music contests, music covers, songsterr, reverbnation, renditions, tabulature, bollywood chords, ultimate guitar, yousician, guitar lessons, torrins, fender, gibson, acoustic guitar, electric guitar, youtube covers, gootar, guitar tuner, A-Z tabs, 911 tabs