Untitled 10 - John Frusciante - Guitar Tabs

Track 1
    
                                                                                                                                                                                                                                                                                                                                                                                                                                                                                                                                                                                                                                                                                                                                                                                                                                                                                                                                                                                                                                                                                                                                                                                              
E|-----------------------------11----(8)--|8--(0)------4------4p6--4-------------|
B|--------6--4--6-------------------------|------------------------------6-------|
G|----------------------------------------|------------------------------6-------|
D|----------------------------------------|--------------------------------------|
A|------------------6/---(8)--------------|--------------------------------------|
E|--1--1-----------------9--------------6-|------2------------2p---------6-------|

    
                                                                                                                                                                                                                                                                                                                                                                                                                                                                                                                                                                                                                                                                                                                                                                                                                                                                                                                                                                                                                                                                                                                                                                                              
E|-----------------------------14|------11-11----10----11----11-11------|
B|---7p6---------7/11-----7/11---|---11----11----10----11----11-11----6-|
G|---------8p6--------8----------|---------------------------------6----|
D|-------------------------------|--------------------------------------|
A|--------------------6----------|--------------------------------------|
E|---7p--------------------------|--------------------------------------|

    
                                                                                                                                                                                                                                                                                                                                                                                                                                                                                                                                                                                                                                                                                                                                                                                                                                                                                                                                                                                                                                                                                                                                                                                              
E|-----4-----------------11-11----11----11----10-11----11|---11----------4--------------------11-11-11-11|
B|-----------------4-----11-11----11----11----10-11----11|---11-------6-----------------4-----11-11-11-11|
G|-----------4-------------------------------------------|---------6--------------4----------------------|
D|--------6----------------------------------------------|---------------------6-------------------------|
A|-------------------------------------------------------|-----------------------------------------------|
E|-------------------------------------------------------|-----------------------------------------------|

    
                                                                                                                                                                                                                                                                                                                                                                                                                                                                                                                                                                                                                                                                                                                                                                                                                                                                                                                                                                                                                                                                                                                                                                                              
E|-----10-11-11----------4----------------|-----------------------|
B|-----10-11-11----6-----------------4----|-----------------------|
G|--------------6--------------4----------|------6----------------|
D|--------------------------6-------------|6-----6----------------|
A|----------------------------------------|6-----4----------------|
E|----------------------------------------|4----------------------|

About Niandra LaDes and Usually Just a T-Shirt : John Frusciante's debut solo album was released on November 22, 1994 . Released the album after encouragement from several friends who told him that there was "no good music around anymore" Niandra LaDes and Usually Just a T-Shirt combines avant-garde and stream-of-consciousness styles . The album's first half was recorded before Frusciante left the band in 1992 . A vinyl edition of the record was released on November 22, 2017 through Superior Viaduct . It was available as both a standard black vinyl edition and a deluxe translucent red vinyl It had a contribution from notable artists like Niandra LaDes,John Frusciante. Its music is influenced by genres - lo-fi , avant-garde , psychedelic rock , experimental rock.

tabs and chords, guitar tabs, music transcription, music technology, deep learning, music information retrieval, transcribe into tabs & chords, chordify, music renditions, songsterr, reverbnation, tabulature, bollywood chords, ultimate guitar, yousician, guitar lessons, acoustic guitar, electric guitar, guitar tuner, 911 tabs