Bass Tabs for Unstoppable God (g)

(/) Slide Up  (\) Slide Down  (h) Hammer On  (p) Pull Off  (b) Bend (r) Release (v) Vibrato (x) Muted

Tabs for Unstoppable God : 

Verse
G|--------------------------------------------------
D|--0--0--0--2--2--2--2--2--------------------------
A|--------------------------3--3--3--3--3--3--3--3--
E|--------------------------------------------------

Chorus (9,7,12,4)
G|--------------------------------------------------------------------------------------------------
D|--------------------------------------------------------------------------------------------------
A|--------------------------------------------------------------------------------------3--3--3--3--
E|--3--3--3--3--3--3--3--3--3--5--5--5--5--5--5--5--0--0--0--0--0--0--0--0--0--0--0--0-----------

Bridge
G|--------------------------------------------------------------------------------------------------------------------------------------------------------------------------------------------------
D|--------------------------------------------------------------------------------------0--0--0--0--------------------------------------------------------------------------------------------------
A|--------------------------------------2--2--2--2--3--3--3--3--3--3--3--3--3--3--3--3--------------------------------------------------------------3--3--3--3--3--3--3--3--3--3--3--3--3--3--3--3--
E|--3--3--3--3--3--3--3--3--3--3--3--3--------------------------------------------------------------0--0--0--0--0--0--0--0--0--0--0--0--3--3--3--3--------------------------------------------------

tabs and chords, guitar tabs, music contests, music covers, songsterr, reverbnation, renditions, tabulature, bollywood chords, ultimate guitar, yousician, guitar lessons, torrins, fender, gibson, acoustic guitar, electric guitar, youtube covers, gootar, guitar tuner, A-Z tabs, 911 tabs