Ukulele Tabs for Unravel - Tokyo Ghoul

(/) Slide Up  (\) Slide Down  (h) Hammer On  (p) Pull Off  (b) Bend (r) Release (v) Vibrato (x) Muted

Tabs for Song : 
BPM : 200

Song lyrics here 
A|--3--5-----3-----2--0-----5-----3-----2-----0-----0-----------------------------------------------------5--7--------
E|-----------------------------------------------------3--------3--1-----3--0-----------0--0-----0--0-----------------
C|--------------------------------------------------------------------------------------------------------------------
G|--------------------------------------------------------------------------------------------------------------------

A|--3--2-----2--2-----3--3-----------2--3-----3--3--------3--7--7-----5--5-----------3--2--3-----2--------------------
E|-----------------------------------------------------------------------------------------------------3-----0--------
C|--------------------------------------------------------------------------------------------------------------------
G|--------------------------------------------------------------------------------------------------------------------

A|-----2--3--3--3--------3-----7--7-----5--5-----3--------7-----5--5--------2--3--------7--5-----------3--3--0--0-----
E|--------------------------------------------------------------------------------------------------------------------
C|--------------------------------------------------------------------------------------------------------------------
G|--------------------------------------------------------------------------------------------------------------------

A|--------0--0-----3--3--0--0-----------0--0-----3--3--0--0--------------------0--------0--7-----5-----7--5-----5--5--
E|--3--3--------------------------3--3--------------------------3--3-----3--------------------------------------------
C|--------------------------------------------------------------------------------------------------------------------
G|--------------------------------------------------------------------------------------------------------------------

A|--3-----3--2--3-----2--------------7--5-----5--5--3-----3--2--3-----10----3-----3-----12-10----7-----3-----3--2-----
E|--------------------------3-----0-----------------------------------------------------------------------------------
C|--------------------------------------------------------------------------------------------------------------------
G|--------------------------------------------------------------------------------------------------------------------

A|--2--2-----3--3--
E|-----------------
C|-----------------
G|------------------
tabs and chords, guitar tabs, music transcription, music technology, deep learning, music information retrieval, transcribe into tabs & chords, chordify, music renditions, songsterr, reverbnation, tabulature, bollywood chords, ultimate guitar, yousician, guitar lessons, acoustic guitar, electric guitar, guitar tuner, 911 tabs