Guitar Tabs for Universe On Fire

(/) Slide Up  (\) Slide Down  (h) Hammer On  (p) Pull Off  (b) Bend (r) Release (v) Vibrato (x) Muted

Universe on Fire (Gloryhammer) refrão solo 1:

Solo Refrão 1 e 2:
E|------------------------------12-12------------------------------------------
B|--14-12-14----------15-15-15-------14-12-12-14-12-14-------------------------
G|-----------11-14-16----------------------------------11-14-16-14-14-14-13-11-
D|-----------------------------------------------------------------------------
A|-----------------------------------------------------------------------------
E|-----------------------------------------------------------------------------

E|-----------------------------------------12-12-------------------------------------------
B|--------------14-12-14----------15-15-15-------14-12-12-14-12-14-------------------------
G|--11-14-11-14----------11-14-16----------------------------------11-14-16-14-14-14-13-11-
D|-----------------------------------------------------------------------------------------
A|-----------------------------------------------------------------------------------------
E|-----------------------------------------------------------------------------------------

Solo Refrão final +1tom:
E|-----------------------------14-14-------------------------------------------
B|--16-14-16----------17-17-17-------16-14-14-16-14-16-------------------------
G|-----------13-16-18----------------------------------13-16-18-16-16-16-15-13-
D|-----------------------------------------------------------------------------
A|-----------------------------------------------------------------------------
E|-----------------------------------------------------------------------------

E|-----------------------------------------14-14-------------------------------------------
B|--------------16-14-16----------17-17-17-------16-14-14-16-14-16-------------------------
G|--16-13-16-13----------13-16-18----------------------------------13-16-18-16-16-16-15-13-
D|-----------------------------------------------------------------------------------------
A|-----------------------------------------------------------------------------------------
E|-----------------------------------------------------------------------------------------

E|-----------------------------------
B|--------------------------------21-
G|--16-16-16-18-20----20-20-20-21----
D|-----------------------------------
A|-----------------------------------
E|-----------------------------------





Paste any tab in acousterr's tab maker and we'll play it !!!
Now supports capo and sound effects for vibrato/pull-off/hammer/bends/mutes etc !!! Checkout help section
tabs and chords, guitar tabs, music transcription, music technology, deep learning, music information retrieval, transcribe into tabs & chords, chordify, music renditions, songsterr, reverbnation, tabulature, bollywood chords, ultimate guitar, yousician, guitar lessons, acoustic guitar, electric guitar, guitar tuner, 911 tabs