Guitar Tabs for Unholy

(/) Slide Up  (\) Slide Down  (h) Hammer On  (p) Pull Off  (b) Bend (r) Release (v) Vibrato (x) Muted

Tabs for Song : 

RIFF 1 (2x) Play Twice

Song lyrics here
C|--------------------------------------------------
G|--------------------------------------------------
D|-------------------------------------------------
A|--------------------------------------------------
F|--7--8--7--6--7--6--5--6--5--4--5--4--3--4--2--3--
C|--7--8--7--6--7--6--5--6--5--4--5--4--3--4--2--3--
    .  .  .  .  .  .  .  .  .  .  .  .  .  .  .  .
C|--------------------------------------------------
G|--------------------------------------------------
D|--------------------------------------------------
A|--------------------------------------------------
F|--7--8--7--6--7--6--5--6--5--4--5--4--3--4--2--3--
C|--7--8--7--6--7--6--5--6--5--4--5--4--3--4--2--3--
    .  .  .  .  .  .  .  .  .  .  .  .  .  .  .  .
C|--------------------------------------------------
G|--------------------------------------------------
D|--------------------------------------------------
A|--------------------------------------------------
F|--7--8--7--6--7--6--5--6--5--4--5--4--3--4--2--3--
C|--7--8--7--6--7--6--5--6--5--4--5--4--3--4--2--3--
    .  .  .  .  .  .  .  .  .  .  .  .  .  .  .  .
C|--------------------------------------------------
G|--------------------------------------------------
D|--------------------------------------------------
A|--------------------------------------3--4--2--3--
F|--7--8--7--6--7--6--5--6--5--4--5--4--3--4--2--3--
C|--7--8--7--6--7--6--5--6--5--4--5--4--------------
    .  .  .  .  .  .  .  .  .  .  .  .  .  .  .  .

Riff 2 (2x) Play Twice

C|--------------------------------------------------
G|--------------------------------------------------
D|--------------------------------------------------
A|--1-----3-----1-----3-----1-----3-----1-----3-----
F|--1--2--3--2--1--2--3--2--1--2--3--2--1--2--3--2--
C|-----2-----2-----2-----2-----2-----2-----2-----2--
       .     .     .     .     .     .     .     .

C|------------------------------------------------
G|------------------------------------------------
D|------------------------------------------------
A|--1-----3-----1-----3-----1-----------------1b--
F|--1--2--3--2--1--2--3--2--1--2--------0-1-3-----
C|-----2-----2-----2-----2-----2--0-1-3-----------
       .     .     .     .     .

RIFF 3 (2x) Twice

C|------------------------------------------------
G|------------------------------------------------
D|------------------------------------------------
A|--2-----1-----------------------------4-----3---
F|--2-----1-----3-----2-----5-----4-----4-----3---
C|--------------3-----2-----5-----4---------------
    .     .     .     .     .     .     .     .

C|------------------------------------------------
G|------------------------------------------------
D|------------------------------------------------
A|--2-----1-----------------------------4-----3---
F|--2-----1-----3-----2-----5-----4-----4-----3---
C|--------------3-----2-----5-----4---------------
    .     .     .     .     .     .     .     .

C|-------------------------------------------
G|-------------------------------------------
D|-------------------------------------------
A|--2-2--1-1----------------------4-4--5-5---
F|--2-2--1-1--3-3--2-2--5-5--4-4--4-4--5-5---
C|------------3-3--2-2--5-5--4-4-------------
    . .  . .  . .  . .  . .  . .  . .  . . 

C|-------------------------------------------
G|-------------------------------------------
D|-------------------------------------------
A|--2-2--1-1----------------------4-4--------
F|--2-2--1-1--3-3--2-2--5-5--4-4--4-4--5PH----
C|------------3-3--2-2--5-5--4-4-------------

    . .  . .  . .  . .  . .  . .  . .

Riff 4 (tremeloed) (2x) Play Twice

C|--------------------------
G|--------------------------
D|--------------------------
A|--------------------------
F|--2--1--------------3--4--
C|--------3--2--3--4--------

C|--------------------------
G|--------------------------
D|--------------------------
A|--------------------------
F|--2--1--------------3--4--
C|--------3--2--3--4--------


C|--------------------------
G|--------------------------
D|--------------------------
A|--2-----------------4-----
F|-----1--3-----4--------3--
C|-----------2-----3--------

C|--------------------------
G|--------------------------
D|--------------------------
A|--2-----------------4-----
F|-----1--3-----4--------3--
C|-----------2-----3--------


Riff 5 (play once)

C|----------------------------------------
G|----------------------------------------
D|----------------------------------------
A|--9--------9--------9--------9----------
F|-----7--------7--------7--------7-------
C|--------6--------6--------6--------6----
    .  .  .  .  .  .  .  .  .  .  .  .

Quickly trnasition from ther last bar

C|-----------------------------------------------
G|-----------------------------------------------
D|-----------------------------------------------
A|--8--------8--------8--------8--------8--------
F|-----6--------6--------6--------6--------6-----
C|--------5--------5--------5--------5--------5--
    .  .  .  .  .  .  .  .  .  .  .  .  .  .  .
C|--------------------------------------------------
G|--------------------------------------------------
D|--------------------------------------------------
A|--9--------9--------9--------9--------9-----9-----
F|--7--------7--------7--------7--------7-----7-----
C|-----6--6-----6--6-----6--6-----6--6-----6-----6--
       .  .     .  .     .  .     .  .     .     .
C|--------------------------------------------------
G|--------------------------------------------------
D|--------------------------------------------------
A|--8--------8--------8--------8--6--5--4-----------
F|--6--------6--------6--------8--6--5--4--8--6--5--
C|-----5--5-----5--5-----5--5--------------8--6--5--
       .  .     .  .     .  .  .  .  .  .  .  .  .

Riff 6 (2x) Play twice

C|--------------------------------------------------
G|--------------------------------------------------
D|--------------------------------------------------
A|--------6-----------------------4-----------------
F|--7-----------5--4--------5-----------3--2--------
C|-----6-----5--------5--4-----4-----3--------3--2--



RIFF 3 (2x) Twice

C|------------------------------------------------
G|------------------------------------------------
D|------------------------------------------------
A|--2-----1-----------------------------4-----3---
F|--2-----1-----3-----2-----5-----4-----4-----3---
C|--------------3-----2-----5-----4---------------
    .     .     .     .     .     .     .     .

C|------------------------------------------------
G|------------------------------------------------
D|------------------------------------------------
A|--2-----1-----------------------------4-----3---
F|--2-----1-----3-----2-----5-----4-----4-----3---
C|--------------3-----2-----5-----4---------------
    .     .     .     .     .     .     .     .

C|-------------------------------------------
G|-------------------------------------------
D|-------------------------------------------
A|--2-2--1-1----------------------4-4--5-5---
F|--2-2--1-1--3-3--2-2--5-5--4-4--4-4--5-5---
C|------------3-3--2-2--5-5--4-4-------------
    . .  . .  . .  . .  . .  . .  . .  . . 

C|-------------------------------------------
G|-------------------------------------------
D|-------------------------------------------
A|--2-2--1-1----------------------4-4--------
F|--2-2--1-1--3-3--2-2--5-5--4-4--4-4--5PH----
C|------------3-3--2-2--5-5--4-4-------------

    . .  . .  . .  . .  . .  . .  . .


Now we transition back into Riff 1 half way through


C|--------------------------------
G|--------------------------------
D|--------------------------------
A|--------------------------------
F|--5--6--5--4--5--4--3--4--2--3--
C|--5--6--5--4--5--4--3--4--2--3--


And three more times of the complete riff

C|--------------------------------------------------
G|--------------------------------------------------
D|--------------------------------------------------
A|--------------------------------------------------
F|--7--8--7--6--7--6--5--6--5--4--5--4--3--4--2--3--
C|--7--8--7--6--7--6--5--6--5--4--5--4--3--4--2--3--
    .  .  .  .  .  .  .  .  .  .  .  .  .  .  .  .
C|--------------------------------------------------
G|--------------------------------------------------
D|--------------------------------------------------
A|--------------------------------------------------
F|--7--8--7--6--7--6--5--6--5--4--5--4--3--4--2--3--
C|--7--8--7--6--7--6--5--6--5--4--5--4--3--4--2--3--
    .  .  .  .  .  .  .  .  .  .  .  .  .  .  .  .
C|--------------------------------------------------
G|--------------------------------------------------
D|--------------------------------------------------
A|--------------------------------------3--4--2--3--
F|--7--8--7--6--7--6--5--6--5--4--5--4--3--4--2--3--
C|--7--8--7--6--7--6--5--6--5--4--5--4--------------
    .  .  .  .  .  .  .  .  .  .  .  .  .  .  .  .

Riff 2 (2x) Play Twice

C|--------------------------------------------------
G|--------------------------------------------------
D|--------------------------------------------------
A|--1-----3-----1-----3-----1-----3-----1-----3-----
F|--1--2--3--2--1--2--3--2--1--2--3--2--1--2--3--2--
C|-----2-----2-----2-----2-----2-----2-----2-----2--
       .     .     .     .     .     .     .     .

C|------------------------------------------------
G|------------------------------------------------
D|------------------------------------------------
A|--1-----3-----1-----3-----1-----------------1b--
F|--1--2--3--2--1--2--3--2--1--2--------0-1-3-----
C|-----2-----2-----2-----2-----2--0-1-3-----------
       .     .     .     .     .
tabs and chords, guitar tabs, music contests, music covers, songsterr, reverbnation, renditions, tabulature, bollywood chords, ultimate guitar, yousician, guitar lessons, torrins, fender, gibson, acoustic guitar, electric guitar, youtube covers, gootar, guitar tuner, A-Z tabs, 911 tabs