Guitar Tabs for Unforgiven Intro

(/) Slide Up  (\) Slide Down  (h) Hammer On  (p) Pull Off  (b) Bend (r) Release (v) Vibrato (x) Muted

Tabs for Song : 

Song lyrics here


E|-----------------------------------------------------------------------------------------------------------------------------------------------------------------------------------------------------------------------------
B|--0--------0--------0--------0--------0--------1--------0--------0--------0--------0--------0--------1--------0--------0--------0--------0--------0--------1--------0--------0--------0--------0--------0--------1--------0--
G|--2-----------2--------2--------2--------2--------2-----------------2--------2--------2--------2--------2-----------------2--------2--------2--------2--------2-----------------2--------2--------2--------2--------2--------
D|--2-----2--------2--------2--------2--------2--------2--------2--------2--------2--------2--------2--------2--------2--------2--------2--------2--------2--------2--------2--------2--------2--------2--------2--------2-----
A|-----0--------------------------------------------------0--0--------------------------------------------------0--0--------------------------------------------------0--0--------------------------------------------------0--
E|--0--------------------------------------------------------------------------------------------------------------------------------------------------------------------------------------------------------------------------

E|-----------------------------------------------------------------------------------------------------------------
B|-----------0---0h1--1--0-----------------0---0h1--1-----------------0---0h1--1--0-----------------0---0h1--1-----
G|--2-----2-----------------2-----2-----2--------------2-----2-----2-----------------2-----2-----2--------------2--
D|-----2-----------------------2-----2--------------------------2-----------------------2-----2--------------------
A|--0------------0h---------------0------------0h------------0------------0h---------------0------------0h---------
E|-----------------------------------------------------------------------------------------------------------------

Song lyrics here
E|--------------------------------------------------------------------------------------0-----0--0-----------------------------------------
B|--------------0--1--------1-----1--1--1--0-----------0-----------------------0--1-----------------3--0-----0--0--------------------------
G|-----------2-----------0--------------------0-----0--0--0------2h4--2-----2-----------------------------------0--1--1---4p-1h-2h-4p2-----
D|--------2-----------2-----------------------------------2--2--------2--2-----------2-----------------------------2--2--------------------
A|-----0-----------3--------------3-----------------2-----------------------------3--------3--------------------------------------------
E|--------------------------------------------------3-----0--------------------------------------------------3-----0--------------------

E|--
B|--
G|--
D|--
A|--
E|--

Paste any tab in acousterr's tab maker and we'll play it !!!
Now supports capo and sound effects for vibrato/pull-off/hammer/bends/mutes etc !!! Checkout help section
tabs and chords, guitar tabs, music transcription, music technology, deep learning, music information retrieval, transcribe into tabs & chords, chordify, music renditions, songsterr, reverbnation, tabulature, bollywood chords, ultimate guitar, yousician, guitar lessons, acoustic guitar, electric guitar, guitar tuner, 911 tabs