Guitar Tabs for Under Control

(/) Slide Up  (\) Slide Down  (h) Hammer On  (p) Pull Off  (b) Bend (r) Release (v) Vibrato (x) Muted

Tabs for Song : 
  BPM : 200
                                            Under Control

E|---------------------------------------------------------------------------------------------------
B|--------------9-----6------------------9/11-11-4--------------13----------------4--9---8/6--6-----
G|--------1--------------8--------1-----------------------------------13-12----3--------------------
D|-----3-----3-----3-----------3-----3--------------3--5--6---5/------------1-----------------------
A|--4-----------------------1-----------------------------------------------------------------------
E|--------------------------------------------------------------------------------------------------

E|--------------------------------------------------------------------------------------------------
B|--------------9-----6------------------9/11-11----------------13----------------4--9---8/6--6-----
G|--------1--------------8--------1-----------------------------------13-12----3--------------------
D|-----3-----3-----3-----------3-----3-----------5--3--5--6--5--------------1-----------------------
A|--4-----------------------1-----------------------------------------------------------------------
E|--------------------------------------------------------------------------------------------------

E|--------------------------------------------8-----------------------------------------------------
B|--------11-9--11----11----11----11-9--11----------9--8--6--------------9--8--6-----6--------------
G|-----------------------------------------------------------5--------------------8--------8--------
D|-----3-----------6-----5-----6-----------6-----6-----------------6-----------------------------8--
A|--4-----------------------1-----------------------------------------------6-----------------------
E|--------------------------------------------------1-----------------------------------------------

E|--------------------------------------------8-----------------------------------------------------
B|--------11-9--11----11----11----11-9--11----------9--8--6-----------------------------------------
G|-----------------------------------------------------------5-----------12----12-12-13-12----------
D|-----3-----------6-----5-----6-----------6-----6-----------------6-----8--------8-----------13----
A|--4-----------------------1--------------------------------------------6--------------------------
E|--------------------------------------------------1-----------------------------------------------

E|--------------------------------------------------------------------------------------------------
B|-----------------------11----11-11-9--11----9--------------------------11----11-11-9--11----9-----
G|--13-------8-----6--------------------------------10-8--------------------------------------------
D|---------------------6--------------------------------------5-----6-------------------------------
A|--4--------------------------------------------------------------------6--------------------------
E|-----------------------6--------------------------1-----------------------------------------------

E|--------------------------------------------------------------------------6--6--6--6--------------
B|--13-------------------11----11-11-9--11----9--------------------------9-----4--4--4--------------
G|--------------------------------------------------10-8--------------------------------------------
D|--------6--6-----6--6--------------------------------------5-----6--------------------------------
A|--4-----------------------------------------------------------------------6--6--6--6--------------
E|-----------------------6--------------------------1-----------------------------------------------

E|-------------------6-----------------------------------------------6------------------------------
B|-----9--9--8--8--6--6--9-----9-----9-----9--9--6-----9--9--8--8--6--6--9-----9-----9-----13-13-14-
G|-----------------------------------------------------5-----------------------8-----8-----5--5--6--
D|-----------------------10----11----11----11-11-11--3----------------------------------------------
A|--4-----------------------1-----------------------------------------------6-----------------------
E|--------------------------------------------------------------------------------------------------

E|-------------------6-----------------------------------------------6------------------------------
B|-----9--9--8--8--6--6--9-----9-----9-----9--9--6-----9--9--8--8--6--6--9-----9-----9-----13-13-14-
G|-----------------------------------------------------5-----------------------8-----8-----5--5--6--
D|-----------------------10----11----11----11-11-11--3----------------------------------------------
A|--4-----------------------1-----------------------------------------------6-----------------------
E|--------------------------------------------------------------------------------------------------

E|-------------------6-----------------------------------------------6------------------------------
B|-----9--9--8--8--6--6--9-----9-----9-----9--9--6-----9--9--8--8--6--6--9-----9-----9-----13-13-14-
G|-----------------------------------------------------5-----------------------8-----8-----5--5--6--
D|-----------------------10----11----11----11-11-11--3----------------------------------------------
A|--4-----------------------1-----------------------------------------------6-----------------------
E|--------------------------------------------------------------------------------------------------


E|-------------------6-----------------------------------------------6------------------------------
B|-----9--9--8--8--6--6--9-----9-----9-----9--9--6-----9--9--8--8--6--6--9-----9-----9-----13-13-14-
G|-----------------------------------------------------5-----------------------8-----8-----5--5--6--
D|-----------------------10----11----11----11-11-11--3----------------------------------------------
A|--4-----------------------1-----------------------------------------------6-----------------------
E|--------------------------------------------------------------------------------------------------


E|-------------------6-----------------------------------------------6------------------------------
B|-----9--9--8--8--6--6--9-----9-----9-----9--9--6-----9--9--8--8--6--6--9-----9-----9-----13-13-14-
G|-----------------------------------------------------5-----------------------8-----8-----5--5--6--
D|-----------------------10----11----11----11-11-11--3----------------------------------------------
A|--4-----------------------1-----------------------------------------------6-----------------------
E|--------------------------------------------------------------------------------------------------

E|--
B|--
G|--
D|--
A|--
E|--

E|--
B|--
G|--
D|--
A|--
E|--

B|--
G|--
D|--
A|--
E|--

E|--
B|--
G|--
D|--
A|--
E|--



Use manual mode to free up cursor. Paste any tab in acousterr tab maker and we'll play it !!!
tabs and chords, guitar tabs, music transcription, music technology, deep learning, music information retrieval, transcribe into tabs & chords, chordify, music renditions, songsterr, reverbnation, tabulature, bollywood chords, ultimate guitar, yousician, guitar lessons, acoustic guitar, electric guitar, guitar tuner, 911 tabs