Guitar Tabs for Ufo's By: Fathom All The Animals

-

Paste any tab in acousterr's tab maker and we'll play it !!!
Now supports capo and sound effects for vibrato/pull-off/hammer/bends/mutes etc !!! Checkout help section
(/) Slide Up  (\) Slide Down  (h) Hammer On  (p) Pull Off  (b) Bend (r) Release (v) Vibrato (x) Muted

Tabs for Song : UFO's by: Fathom All the Animals 
Standard Tuning 
Effects: Boss Chorus Pedal

Intro
E|--------------------------------------------------------------------------------------------------
B|--------------------------------------------------------------------------------------------------
G|--------------8-----8--8--------------8-----8--8--------------8-----8--8--------------8-----8--8--
D|--------9-----------9--9--------9--------9--9--9--------9--------9--9--9--------9--------9--9--9--
A|--7--7-----7-----9--7--7--7--7-----7--------7--7-----------7--------7--7-----------7--------7--7--
E|--------------------------------------------------9--9--------------9--9--9--9--------------9--9--

E|-----------------------------------------------------------------------------------------------------------------
B|-----------------------------------------------------------------------------------------------------------------
G|--------------8-----8--8--------------8-----8--8--------------8-----8--8--------------8-----8--8-----8-----------
D|--------9--------9--9--9--------9--------9--9--9--------9--------9--9--9--------9--------9--9--9-----9-(x16)-----
A|--7--7-----7--------7--7--7--7-----7--------7--7-----------7--------7--7-----------7--------7--7-----7-----------
E|--------------------------------------------------9--9--------------9--9--9--9--------------9--9-----9-----------

 (Alt Chorus)(x3)     
E|-------------------|
B|-------------------|
G|--------6-\8-/-6/4-|
D|--2|(x5)-----------| 
A|--2|----4-\6-/-4/2-|
E|-------------------|
(Alt Chorus Outro)
E|-------------------|
B|-------------------|
G|------------------ |
D|--2|(x5)-----------|
A|--2|----6-\7-------|
E|--------4-\5-------|
  
  Verses (Palm mute and strum full chord on transitions) Repeats x3
E|-----------------------------------------------------------
B|-----------------------------------------------------------
G|--------------8-----------------------------8-----8--8--8--
D|--------9--------9-----9--------------9--------9--9--9--9--
A|--7--7-----7--------7-----7--------------7--------7--7--7--
E|--------------------------------9--9--------------9--9--9--
(Verse to Chorus)
E|-----------------------------------------------------
B|-----------------------------------------------------
G|--------------8-----------------------------8-----8--
D|--------9--------9-----9--------------9--------9--9-(x16)
A|--7--7-----7--------7-----7--------------7--------7--
E|--------------------------------9--9--------------9--

 (Chorus)(x3)     
E|-------------------|
B|-------------------|
G|--------6-\8-/-6/4-|
D|--2|(x5)-----------| 
A|--2|----4-\6-/-4/2-|
E|-------------------|

E|-------------------|
B|-------------------|
G|------------------ |
D|--2|(x5)-----------|
A|--2|----6-\7-------|
E|--------4-\5-------|

E|-------------------|
B|-------------------|
G|--------6-\8-/-6/4-|
D|--2|(x5)-----------| 
A|--2|----4-\6-/-4/2-|
E|-------------------|

E|-------------------|
B|-------------------|
G|------------------ |
D|--2|(x5)-----------|
A|--2|----6-\7-------|
E|--------4-\5-------|

E|-------------------|
B|-------------------|
G|--------6-\8-/-6/4-|
D|--2|(x5)-----------| 
A|--2|----4-\6-/-4/2-|
E|-------------------|

E|-------------------|
B|-------------------|
G|------------------ |
D|--2|(x5)-----------|
A|--2|----6-\7-------|
E|--------4-\5-------|

(Bridge) Listen to song for strumming pattern
    (Part 1)      (Part 2)
E|-----|--------|------|-------|
B|-----|--------|------|-------|
G|--8--|--8--11-|-9--11|--9--11|
D|--9--|--9--9--|-x--x-|-------|
A|--7--|--7--7--|-7--7-|--7--7-|
E|-----|--9-----|------|--9--9-|
tabs and chords, guitar tabs, music transcription, music technology, deep learning, music information retrieval, transcribe into tabs & chords, chordify, music renditions, songsterr, reverbnation, tabulature, bollywood chords, ultimate guitar, yousician, guitar lessons, acoustic guitar, electric guitar, guitar tuner, 911 tabs